Аккорды ДДТ - Пруст

Добавлено: @romashka
Дата добавления: 07 Декабря 2020г.
Рейтинг:
0.0
Просмотров: 52
Транспонировать - +
Для удобства тональность -2

           Bm                 G 
В ногах пылится полумертвый Пруст,
       F#                  Bm
Котом избитый, молодым и рьяным.
              G             G
А дождь в ведре наполовину пуст,
          F#             Bm
А мир вокруг наполовину пьяный.
          E                 F#
На стенки ива клонится к воде,
Bm                       G
Китайского коза происхождения.
            G                    F#
Жива ль ты Русь, а может снишься мне?
        Bm                Bm7
Ох, погулял я в это воскресенье…


G
Где вчера я был? С кем вчера я пил?
            F#                   Bm
Кому я наварил, как спартанец у Фермопил?
G
Кому вчера хамил я? Кому дерзил?
              F#      Bm
Кого вчера любил я среди горилл?


Соло: х2
1|---------------------------------------------------------|
2|----5---7---5---7---5---7---5---7-----3---5---3---5---3--|
3|---------------------------------------------------------|
4|---------------------------------------------------------|

1|---------------------------------------------------------|
2|-5---3---5-----2---3---2---3---2---3---2---3---2---------|
3|---------------------------------------------------4-----|
4|-------------------------------------------------------4-|

          Bm             G
Неужто с нами это навсегда?
          F#                Bm
Мы ждали чудо, но куда всё делось?
           G              G
С грехами лажа, полная беда –
         F#             Bm
Отдал попам оставшуюся мелочь.
             E                F#
Где рваный дьяк размахивал собой,
  Bm                      G
Наутро он сгорел, и не осталось
    G                    F#
От Бога ничего, а Был Живой,
           Bm                  Bm7
Свалил на Бали, нам снова обломалось.


G
Где вчера я был? С кем вчера я пил?
            F#                   Bm
Кому я наварил, как спартанец у Фермопил?
G
Кому вчера хамил я? Кому дерзил?
              F#      Bm
Кого вчера любил я среди горилл?
 
         
          Bm                    G
Я снова здесь, где правильно дышать
          F#               Bm
Нас призывает ваша перспектива.
           G                      G
Вокруг менты, на «Первом» стонет дива,
            F#                   Bm
Ох, трудно вечность с горькою мешать.
           E                 F#
Нам в обезьянник тайно пронесли
   Bm               G
Живую душу хмурые олени.
     G                       F#
Во всех поэтах трушных на Руси
    Bm                    Bm7
Немного есть Высоцкий и Есенин.


G
Где вчера я был? С кем вчера я пил?
            F#                   Bm
Кому я наварил, как спартанец у Фермопил?
G
Кому вчера хамил я? Кому дерзил?
              F#      Bm
Кого вчера любил я среди горилл?

Соло: х2
1|---------------------------------------------------------|
2|----5---7---5---7---5---7---5---7-----3---5---3---5---3--|
3|---------------------------------------------------------|
4|---------------------------------------------------------|

1|---------------------------------------------------------|
2|-5---3---5-----2---3---2---3---2---3---2---3---2---------|
3|---------------------------------------------------4-----|
4|-------------------------------------------------------4-|
 
         Bm                  G                    
Ты стала утром, плача в рукава
        F#                  Bm
Моей харизмы странной, полудикой,
        G                  G
А я молчу, во мне течёт Нева,
   F#                   Bm
Холодная, со вкусом ежевики.
       E                    F#
Живая Русь, не ты, а мы во сне,
          Bm                G
Пускаем слюни счастливо и смирно,
             G                    F#
Москва в цвету, в москвичи – в говне
          Bm                    Bm7
Пока всё мирно, вашу мать, всё мирно!!!


G
Где вчера я был? С кем вчера я пил?
            F#                   Bm
Кому я наварил, как спартанец у Фермопил?
G
Кому вчера хамил я? Кому дерзил?
              F#      Bm
Кого вчера любил я среди горилл?


G
Где вчера я был? С кем вчера я пил?
            F#                   Bm
Кому я наварил, как спартанец у Фермопил?
G
Кому вчера хамил я? Кому дерзил?
              F#      Bm
Кого вчера любил я? Вот дебил (Дебил)!


G
Где вчера я был? С кем вчера я пил?
            F#                   Bm
Кому я наварил, как спартанец у Фермопил?
G
Кому вчера хамил я? Кому дерзил?
              F#      Bm
Кого вчера любил я среди могил?

Бой - восьмёрка пополам.
Наверх