Аккорды Двойной Фёдр - Картофель

Добавлено: @romashka
Дата добавления: 02 Декабря 2017г.
Рейтинг:
0.0
Просмотров: 178
Транспонировать - +
Вступление и соло в середине:
                             Am            E             Am               F    G
E|--------------------------|---------------------------|---------------------------|
B|-----1---1---1---1---0----|-1----1---1---0---1---0----|---------------------------|
G|--------------------------|---------------------------|----------------------0----|
D|--------------------------|---------------------------|-2---------------3---------|

   C             E           Am                G    A      Dm           E
E|------------------------------|--------------3----0----|-1--------0------------0--|
B|-1----0---1---3---1---0---0---|-----1------------------|------2-------3----0------|

  Am     Asus2   Am           Dm                          E
E|---------------------------|------------------------------|-----------------------|
B|-3----1---0---1----0---1---|-3----3---3---3---1---3---1---|-----0-----------------|

               Am       E       Am
Обронив слезу, в руки лопату я взял,
F  G    C        E          Am
Горесть мыслей о нём во мне будя,
G   A  Dm          E          Am Asus2 Am
Он не пил, не плевал в лицо, не предавал,
         Dm                   E
В общем, был он пример многим людям.

               Am       E       Am
И в то время, как люди сжирали людей
F  G    C        E       Am
И носили за пазухой камень,
G   A  Dm          E       Am Asus2 Am
Он, от эгоистичных далёкий идей,
         Dm                E
Мирно жил, обрастая ростками.

               Am       E       Am
И пока мы другу другу давали под дых
F  G    C        E        Am
И с асфальтом знакомили лица,
G   A  Dm          E          Am Asus2 Am
Он жил в погребе, в мире собратьев своих
         Dm               E
По отсутствию зла и амбиций.

               Am       E       Am
Он лишён костей, мяса, артерий и жил,
F  G    C        E    Am
Не даны ему руки и ноги,
G   A  Dm          E          Am Asus2 Am
Но по всем тем грехам, что он не совершил,
         Dm                   E
Он в сто крат человечнее многих.

               Am       E       Am
Проживая свой век, восьмимесячный век,
F  G    C        E          Am
Он грубел кожурой, а не сердцем,
G   A  Dm          E      Am Asus2 Am
Но решил его похоронить человек
         Dm                E
Меж могил сельдерея и перцев.

               Am       E       Am
Смерть нашла его в лунке с говном и золой
F  G    C        E        Am
И лопатой зашла подло с тылу.
G   A  Dm          E          Am Asus2 Am
Он тянулся к земле и обрёл свой покой
      Dm          E        Am    E
На шести сотках братской могилы.

Соло.

               Am       E       Am
Места не было злости, вранью и понтам
F  G    C        E          Am
В его теле полтинник на тридцать,
G   A  Dm          E        Am Asus2 Am
И тому, как добрее и проще быть нам
         Dm                E
Есть всегда у кого поучиться.

               Am       E       Am
Вот уж ветер осенний листву разметал,
F  G    C        E          Am
А копать землю — это мой профиль,
G   A  Dm          E        Am Asus2 Am
Обронив слезу, в руки лопату я взял,
     Dm       E      Am
Эксгумировать еду картофель.
Наверх