Аккорды Edvard Grieg - Morning Mood

Добавлено: @romashka
Дата добавления: 20 Апреля 2019г.
Рейтинг:
0.0
Просмотров: 36
Транспонировать - +
Allegretto:
     4                 1
     h.(3)     4       h.                h.
|--3----0---------|------------0----|--3----0---------|
|------------3----|--1----3---------|------------3----|
|-----------------|-----------------|-----------------|
|-----------------|-----------------|-----------------|
|--3--------------|--3--------------|--3--------------|
|-----------------|-----------------|-----------------|
    |-----------------|                 |--------------
             T                                      T

       i   m  i m
       e  e  e  e     4
   h.                 h.                h.                h.(3)
E|----------0-----0--|--3----0----3----|--5----0----5----|--3----0------|
B|--1----3-----3-----|-----------------|-----------------|------------3-|
G|-------------------|-----------------|-----------------|--------------|
D|-------------------|-----------------|-----------------|--------------|
A|--3----------------|--3--------------|--3--------------|--3-----------|
E|-------------------|-----------------|-----------------|--------------|
--|

                  h.(3)                               h.
E|---------------|-----------------|-----------------|--------------|
B|--1------------|-----------------|-----------------|--------------|
G|---------------|--0--------------|-----------------|--0-----------|
D|---------------|-------2----0----|-------0----2----|-------2----0-|
A|---------------|--3--------------|--3--------------|--3-----------|
E|---------------|-----------------|-----------------|--------------|

       e  e  e  e                       3
                      h.                h.               h.
E|-------------------|-----------------|-----------------|--------------|
B|-------------------|-----------------|-----------------|--0-----------|
G|-------------------|--0---------0----|--2---------2----|-------1------|
D|-------0--2--0--2--|-------2---------|-------2---------|------------4-|
A|--3----------------|--3--------------|--3--------------|--------------|
E|-------------------|-----------------|-----------------|--0-----------|

              4
  h           h.                h.                h.
-----------|-----------------|-----------------|-----------------|
-----------|--3----0---------|------------0----|--3----0---------|
-----------|------------2----|--0----2---------|------------2----|
--2--------|-----------------|-----------------|-----------------|
-----------|-----------------|-----------------|-----------------|
-----------|--3--------------|--3--------------|--3--------------|
              |-----------------|                 |---------------
                       T                                     T

                                      4
   h.               h.                h.(3)             h.
E|-----------------|-----------------|-----------------|--------------|
B|------------0----|--3----0----3----|--4----1----4----|--3----0------|
G|--0----2---------|-----------------|-----------------|------------2-|
D|-----------------|-----------------|-----------------|--------------|
A|-----------------|-----------------|--3--------------|--------------|
E|--3--------------|--3--------------|-----------------|--3-----------|
--|

              h.                                  h.
              h.                                  h.
  h
E|-----------|-----------------|-----------------|--------------|
B|-----------|--0--------------|-----------------|--0-----------|
G|--0--------|--0--------------|-----------------|--0-----------|
D|-----------|--0--------------|-----------------|--0-----------|
A|-----------|-------2----0----|-------0----2----|-------2----0-|
E|-----------|-----------------|--3--------------|--------------|

       e  e  e  e
E|-------------------|-----------------|-----------------|--------------|
B|-------------------|-----------------|-----------------|--------------|
G|-------------------|-----------------|-----------------|--------------|
D|-------------------|--0---------0----|--1---------1----|--0-----------|
A|-------0--2--0--2--|-------2---------|-------3---------|-------2----0-|
E|--3----------------|-----------------|-----------------|--------------|

  h.      4                      2    3
E|-------|-----------------|-----------------|--------------|
B|-------|--3----0---------|-----------------|--3----0------|
G|-------|------------0----|-----------------|------------0-|
D|-------|-----------------|--0--------------|--------------|
A|-------|-----------------|-------2---------|--------------|
E|--3----|-----------------|------------3----|--------------|

                    h.                h.                h.
-----------------|--3----0---------|------------0----|--3----0---------|
-----------------|------------3----|--1----3---------|------------3----|
-----------------|-----------------|-----------------|-----------------|
--0--------------|-----------------|-----------------|-----------------|
-------2---------|--3--------------|--3--------------|--3--------------|
------------3----|-----------------|-----------------|-----------------|
                    |-----------------|                  |--------------
                             T                                       T

       e  e  e  e
  h.                  h.                h.
E|----------0-----0--|--3----0----3----|--------------|
B|--1----3-----3-----|-----------------|--------------|
G|-------------------|-----------------|--2---------2-|
D|-------------------|--2--------------|--1----4------|
A|--3----------------|-----------------|--------------|
E|-------------------|-----------------|--------------|
--|

                                         h.
                                         h.
  e  e  e  e  e  e                       h.
  h.                   h.                h.
E|--------------------|-----------------|-----||
B|--0--1--0--1--0--1--|--0---------0----|--1--||
G|--------------------|-------2---------|--0--||
D|--0-----------------|-----------------|--2--||
A|--------------------|-----------------|--3--||
E|--------------------|--3--------------|-----||

TimeSignnagure : 3/4
KeySignature   : C (No Sharp,No Flat)

Top      -  Note Type, LHF and RHF 
1,2,3,4  -  Right Hand Fingers
(1. Index Finger,2. Middle Finger so on)
ima      -  Right Hand Finger
(i- Index Finger, m - Middle Finger, a - Ring Finger)

w  - Whole Note
h  - Half Note
q  - Quarter Note
e  - Eighth Note
h. - Dotted Half Note
T  - Tie

Note:
*) Notes Not having above letters are q (Quarter Notes)
*) q(a) or h(3) used to differenciate Note type and LHF or RHF

1) Instead of playing(pa-a-m-i) RHF for the 1st and 2nd bar, I use to play 
(tm-a-m-i).
2) For 5th bar i use to play pa-m-i RHF 
comments powered by Disqus
Наверх