Аккорды Егор Натс - Соврал

Добавлено: @romashka
Дата добавления: 13 Июля 2020г.
Рейтинг:
0.0
Просмотров: 69
Транспонировать - +
Вступление: 
Каподсатр на 4 лад, если хочешь звук как в оригинале ;)
e|----------0------|-----------------|-------0---------|-----------------|
B|-------0---------|-------0---------|----0------------|-----------------|
G|-----5-----------|----7------------|--5----------7---|-----------------|
D|-----------------|-----------------|-----------------|-----------------|
A|-3---------------|-5--------5--3---|-----------------|-----------------|
E|-----------------|-----------------|-----------------|-----------------|

Куплет 1:
e|---------------0-|-----------------|---------------0-|-----------------|
B|---------0-------|----0------------|---------0-------|----0------------|
G|-----5------5----|-5-----5---------|------5-----5----|-5-----5---------|
D|-----------------|-----------------|-----------------|-----------------|
A|-3---------------|-----------------|--3--------------|-----------------|
E|-----------------|-----------------|-----------------|-----------------|
      Чувствуй,                   я  же  так близко 

e|---------------0-|-----------------|---------------0-|-----------------|
B|---------0-------|----0------------|---------0-------|----0------------|
G|-----0------0----|-0-----0---------|------0-----0----|-0-----0---------|
D|-----------------|-----------------|-----------------|-----------------|
A|-3---------------|-----------------|--3--------------|-----------------|
E|-----------------|-----------------|-----------------|-----------------|                
    Вот мои струны,                   вот моя искра 

e|---------------0-|-----------------|---------------0-|-----------------|
B|---------0-------|----0------------|---------0-------|----0------------|
G|-----5------5----|-5-----5---------|------5-----5----|-5-----5---------|
D|-----------------|-----------------|-----------------|-----------------|
A|-3---------------|-----------------|--3--------------|-----------------|
E|-----------------|-----------------|-----------------|-----------------|                    
    Грустно,                            нужно проститься, 
   
e|---------------0-|-----------------|---------------0-|-----------------|
B|---------0-------|----0------------|---------0-------|----0------------|
G|-----0------0----|-0-----0---------|------0-----0----|-0-----0---------|
D|-----------------|-----------------|-----------------|-----------------|
A|-3---------------|-----------------|--3--------------|-----------------|
E|-----------------|-----------------|-----------------|-----------------| 
   ведь я больше не чувствую           Можешь забыть все 

Припев: 

e|---------------0-|-----------------|---------------0-|-----------------|
B|---------1-------|----1------------|---------1-------|----1------------|
G|-----2------2----|-2-----2---------|------0-----0----|-0-----0---------|
D|-----------------|-----------------|-----------------|-----------------|
A|-0---------------|-----------------|--3--------------|-----------------|
E|-----------------|-----------------|-----------------|-----------------| 
  Я уйду, когда шум сменит               тяжесть тишины 

e|---------------0-|-----------------|---------------0-|-----------------|
B|---------0-------|----0------------|---------0-------|----0------------|
G|-----0------0----|-0-----0---------|------0-----0----|-0-----0---------|
D|-----------------|-----------------|-----------------|-----------------|
A|-0---------------|-----------------|--3--------------|-----------------|
E|-----------------|-----------------|-----------------|-----------------| 
    Ты молчишь,    я молчу    Нам      не о чем говорить 

e|---------------0-|-----------------|---------------0-|-----------------|
B|---------1-------|----1------------|---------1-------|----1------------|
G|-----2------2----|-2-----2---------|------0-----0----|-0-----0---------|
D|-----------------|-----------------|-----------------|-----------------|
A|-0---------------|-----------------|--3--------------|-----------------|
E|-----------------|-----------------|-----------------|-----------------|                 
  И пускай сотни раз                    обещал с тобою 

e|---------------0-|-----------------|---------------0-|-----------------|
B|---------0-------|----0------------|---------0-------|----0------------|
G|-----0------0----|-0-----0---------|------0-----0----|-0-----0---------|
D|-----------------|-----------------|-----------------|-----------------|
A|-0---------------|-----------------|--0--------------|-----------------|
E|-----------------|-----------------|-----------------|-----------------| 
          быть до конца, соврал 
Переход: 
e|-----------------|----5-5-5-5------|---3-------------|-----------------|
B|--7-----7--3-----|----5------------|-----------------|-----------------|
G|-----0-----------|-0---------------|-----------------|-----------------|
D|-----------------|-----------------|-----------------|-----------------|
A|--5--------2-----|----3------------|-----------------|-----------------|
E|-----------------|-----------------|-----------------|-----------------| 

Куплет 2: 

e|---------------0-|-----------------|---------------0-|-----------------|
B|---------0-------|----0------------|---------0-------|----0------------|
G|-----5------5----|-5-----5---------|------5-----5----|-5-----5---------|
D|-----------------|-----------------|-----------------|-----------------|
A|-3---------------|-----------------|--3--------------|-----------------|
E|-----------------|-----------------|-----------------|-----------------|  
   Оставь меня среди этих небесных   рек  Я ненавижу день, но так влюбился 

e|---------------0-|-----------------|---------------0-|-----------------|
B|---------0-------|----0------------|---------0-------|----0------------|
G|-----0------0----|-0-----0---------|------0-----0----|-0-----0---------|
D|-----------------|-----------------|-----------------|-----------------|
A|-3---------------|-----------------|--3--------------|-----------------|
E|-----------------|-----------------|-----------------|-----------------| 
 в ночь Но если будет нужно помогу тебе Ведь до сих пор никто так и не смог

e|---------------0-|-----------------|---------------0-|-----------------|
B|---------0-------|----0------------|---------0-------|----0------------|
G|-----5------5----|-5-----5---------|------5-----5----|-5-----5---------|
D|-----------------|-----------------|-----------------|-----------------|
A|-3---------------|-----------------|--3--------------|-----------------|
E|-----------------|-----------------|-----------------|-----------------|
 помочь Не встретил бы тебя, не понял одного Что не важна любовь, когда пусто
 
e|---------------0-|-----------------|---------------0-|-----------------|
B|---------0-------|----0------------|---------0-------|----0------------|
G|-----5------5----|-5-----5---------|------5-----5----|-5-----5---------|
D|-----------------|-----------------|-----------------|-----------------|
A|-3---------------|-----------------|--3--------------|-----------------|
E|-----------------|-----------------|-----------------|-----------------|
внутри Вот почему все песни только о плохом Даже когда с тобою влюблены


Припев: 

e|---------------0-|-----------------|---------------0-|-----------------|
B|---------1-------|----1------------|---------1-------|----1------------|
G|-----2------2----|-2---------------|------0-----0----|-0-----0---------|
D|-----------------|-----------------|-----------------|-----------------|
A|-0---------------|--------------2--|--3--------------|-----------------|
E|-----------------|-----------------|-----------------|-----------------| 
   Уйду, когда шум сменит                тяжесть тишины 

e|---------------0-|-----------------|---------------0-|-----------------|
B|---------0-------|----0------------|---------0-------|----0------------|
G|-----0------0----|-0-----0---------|------0-----0----|-0-----0---------|
D|-----------------|-----------------|-----------------|-----------------|
A|-0---------------|-----------------|--3--------------|-----------------|
E|-----------------|-----------------|-----------------|-----------------|
  Ты молчишь, я молчу, нам               не о чем говорить

e|---------------0-|-----------------|---------------0-|-----------------|
B|---------1-------|----1------------|---------1-------|----1------------|
G|-----2------2----|-2-----2---------|------0-----0----|-0-----0---------|
D|-----------------|-----------------|-----------------|-----------------|
A|-0---------------|-----------------|--3--------------|-----------------|
E|-----------------|-----------------|-----------------|-----------------|                           
   И пускай сотни раз                  обещал с тобою 

e|---------------0-|-----------------|-----------------|-----------------|
B|---------0-------|----0------------|---------0-------|----0------------|
G|-----0------0----|-0-----0---------|------0-----0----|-0-----0---------|
D|-----------------|-----------------|-----------------|-----------------|
A|-0---------------|-----------------|--0------------3-|-----------------|
E|-----------------|-----------------|-----------------|-----------------| 
   быть до конца,                      соврал 
Переход: 

e|-----------------|----5-5-5-5------|---3-------7-----|-----------------|
B|--7-----7--3-----|----5------------|-----------------|-----------------|
G|-----0-----------|-0---------------|-----------------|-----------------|
D|-----------------|-----------------|-----------------|-----------------|
A|--5--------2-----|----3------------|-----------------|-----------------|
E|-----------------|-----------------|-----------------|-----------------|

e|-----------------|----7-7-7-7------|---5-------3-----|-----------------|
B|--7-----7--8-----|-----------------|-----------------|-----------------|
G|-----0-----------|-0---------------|-----------------|-----------------|
D|-----------------|-----------------|-----------------|-----------------|
A|--5--------7-----|----3------------|-----------------|-----------------|
E|-----------------|-----------------|-----------------|-----------------|

e|-----------------|-----------------|-----------------|-----------------|
B|--5-----5--7-----|----3------------|--7-----7--8-----|----5------------|
G|-----0-----------|-0---------------|-----0-----------|-0---------------|
D|-----------------|-----------------|-----------------|-----------------|
A|--3--------5-----|----2------------|--5--------7-----|----3------------|
E|-----------------|-----------------|-----------------|-----------------|

Бой [↓↓↓↓]
Am                       C
Я уйду, когда шум сменит тяжесть тишины 
Em                       G
Ты молчишь, я молчу, нам не о чем говорить 
Em                   C                    Em        Em         
И пускай сотни раз обещал с тобою, быть до конца, соврал 

Бой быстрее [↓ ↓↑⇅↓⇅]
 Am                        C
Я уйду, когда шум сменит тяжесть тишины 
Em                        G
Ты молчишь, я молчу, нам не о чем говорить
Am                    C                       Em  
И пускай сотни раз обещал с тобою быть до конца,
      Em    G      Am
 соврал  соврал, соврал
Наверх