Аккорды Егор Натс - Соврал

Добавлено: @romashka
Дата добавления: 26 Декабря 2020г.
Рейтинг:
0.0
Просмотров: 41
Транспонировать - +
Вступление:
[4]
e||---------0---------------------0------------
B||-------0-----------0---------0--------------
G||-----5-----------7---7-----5-------------7--
D||--------------------------------------------
A||---3-----------5--------3-------------------
E||--------------------------------------------

  C               C
Чувствуй, я же так близко 
  G6              G6
Вот мои струны, вот моя искра 
  C               C                 
Грустно, нужно проститься, 
                  G6 
Ведь я больше не чувствую 
  G6
Можешь забыть все 

   Припев[1]: 
    Am                       C           
   Я уйду, когда шум сменит тяжесть тишины 
    Em
   Ты молчишь, я молчу 
          G6 
   Нам не о чем говорить 
          Am              C         
   И пускай сотни раз обещал с тобою 
               Em      Em
   Быть до конца, соврал 

Проигрыш:
e----------------------5-5-5-5-------3---
B---7----7--3----------5-----------------
G-----0------------0---------------------
D----------------------------------------
A---5-------2----------3-----------------
E---------------------------------------- 

Куплет 2:
C                                  C
Оставь меня среди этих небесных рек 
                                      G6
Я ненавижу день, но так влюбился в ночь 
                             G6
Но если будет нужно помогу тебе 
G6                                      C 
Ведь до сих пор никто так и не смог помочь 
                                   C 
Не встретил бы тебя, не понял одного 
C                                     G6
Что не важна любовь, когда пусто внутри 
G6
Вот почему все песни только о плохом 
G6           G6/F#
Даже когда с тобою влюблены 

   Припев[2]: 
    Am                       C           
   Я уйду, когда шум сменит тяжесть тишины 
    Em
   Ты молчишь, я молчу 
          G6 
   Нам не о чем говорить 
          Am              C         
   И пускай сотни раз обещал с тобою 
               Em      Em G6
   Быть до конца, соврал 

Проигрыш:
e----------------------5-5-5-5-------3---7-------------------------7-7-7-7-------5---3---
B---7----7--3----------5------------------------7----7--8--------------------------------
G-----0------------0------------------------------0------------0-------------------------
D----------------------------------------------------------------------------------------
A---5-------2----------3------------------------5-------7----------3---------------------
E----------------------------------------------------------------------------------------

   Припев[3]:
    Am                       C           
   Я уйду, когда шум сменит тяжесть тишины 
    Em
   Ты молчишь, я молчу 
          G 
   Нам не о чем говорить 
          Am              C         
   И пускай сотни раз обещал с тобою 
               Em      Em
   Быть до конца, соврал 

   Припев[4]:
    Am                       C           
   Я уйду, когда шум сменит тяжесть тишины 
    Em
   Ты молчишь, я молчу 
          G
   Нам не о чем говорить 
          Am              C         
   И пускай сотни раз обещал с тобою 
               Em    Em      G      Am
   Быть до конца, соврал, соврал, соврал.

Аккорд С и G6 в куплетах и припевах можно играть так:
             С                       G6
[4]                      [4]
e||-----------0--------  e||-------------0---------
B||-------0-------0----  B||---------0-------0-----
G||-----5---5---5---5--  G||------0----0---0---0---
D||--------------------  D||-----------------------
A||---3----------------  A||-----------------------
E||--------------------  E||---3-------------------

1. Каподастр на 4-м ладу;
2. Припев [3] играется таким боем ↓ ↓ ↓ ↓ на каждый аккорд;
3. Припев [4] играется таким боем ↓ ↓ ↑ ↑ ↑ ↓ ↓ ↑;
4. Последние 3 "соврал" играются ↓↓ ↓ ↓ ↓↑.
Наверх