Аккорды Екатерина Яшникова - Ванечка

Добавлено: @romashka
Дата добавления: 01 Мая 2022г.
Рейтинг:
0.0
Просмотров: 23
Транспонировать - +
Для оригинального перебора требуется каподастр на 4-й лад.
Над табулатурой приведены авторские аккорды.

CHORD| Em               | Em6      Gaug
g#---|------------------|-------------------
D#---|-----1--------1---|-----1--------------
B----|---1---1----1---1-|---1---1----1---1----|  (x4)
F#---|------------------|---------------------|
C#---|-3--------3-------|-0--------2---2-----/
G#---|------------------|------------------/

CHORD| D                | B5               | Em               | Bmadd11  B
g#---|------------------|------------------|------------------|-------------------
D#---|-----3--------3---|-----3--------3---|-----1--------1---|-----1--------3-----
B----|---3---3----3---3-|---0---0----0---0-|---1---1----1---1-|---0---0----0---0----|  (x2)
F#---|------------------|------------------|------------------|---------------------|
C#---|-5--------5-------|------------------|-3--------3-------|-1--------2---------/
G#---|------------------|-3--------3-------|------------------|-------------------/

* в оригинале вместо Bmadd11 стоит E9(no 3rd)

Em                Em6 Gaug Em
Берега зеленые, широкая река
             Em6 Gaug
Ох, перейти ее непросто.
Em                     Em6   Gaug Em
Ходит-бродит Ванечка, идёт издалека
               Em6 Gaug 
Ой да из лютых девяностых
D                         B5        Em
Где не ступит – осыпи, да топи на пути,
             Bmadd11 B
И чёрным дымом лес окутан
D                       B5         Em 
Ищет Ваня мостик, чтобы речку перейти,
                Bmadd11 B
Да блудит, будто бес попутал...

Em                     Em6 Gaug Em
Кличет сына блудного седеющая мать,
              Em6  Gaug
Напрасно свои силы тратит:
Em                      Em6  Gaug Em
Убежал Ванюша в дальний город воевать,
             Em6  Gaug 
Да не воротится дитятя.
D                  B5          Em
Кости на обочине покроются снежком –
              Bmadd11 B
Так вот тебе и саван белый
D                        B5         Em
Коли жизнь над головой завяжется мешком –
          Bmadd11 B
Лежи и ничего не делай.

Em                    Em6   Gaug Em
Побежала из-под крана мёртвая вода,
             Em6  Gaug
А говорят, была живая.
Em                   Em6  Gaug Em
Дёргает за ниточки весёлый тамада,
         Em6    Gaug
Юродивые рты сшивает.
D                   B5         Em
Дружное молчание да сытое враньё
                   Bmadd11 B
Концы в воде, всплывут не скоро
D                    B5         Em
За забором Ваню распинает вороньё
               Bmadd11 B
А мы ж поплачем у забора.

Em                        Em6 Gaug Em
Сколько плеч отчаянных раскраивала плеть –
              Em6    Gaug
Кукушкина страна большая.
Em                         Em6 Gaug Em
Очень, братцы, хочется в России умереть,
              Em6  Gaug
Вот оттогой не уезжаю.
D                         B5          Em
Бьётся сердцем Родина, да рвётся из меня,
               Bmadd11 B
Собрали братцы свой багаж, но
D                       B5          Em
Мне в раю без Родины не выдержать и дня,
               Bmadd11 B
А с нею – и в аду не страшно.

Em                     Em6    Gaug  Em
На крыльце останутся сапожник и портной –
                Em6  Gaug
Уйдёт крылечко с молотка.
Em                       Em6      Gaug Em
Говорят, что Ванечка воскреснет в выходной,
              Em6   Gaug
Да только непонятно как...

Em Em6 Gaug Em Em6 Gaug Em 
Наверх