Аккорды Ellie Goulding - Sweet Disposition

Добавлено: @romashka
Дата добавления: 18 Января 2023г.
Рейтинг:
0.0
Просмотров: 14
Транспонировать - +
Capo 4

C
e|---------------------------------|
B|---1---1---1---1---1---1---1---1-|
G|-------------0---------------0---|
D|-----2---------------2-----------|
A|-3-------3-------3-------3-------|
E|---------------------------------|

Am
e|---------------------------------|
B|---1---1---1---1---1---1---1---1-|
G|-------------0---------------0---|
D|-----2---------------2-----------|
A|-0-------0-------0-------0-------|
E|---------------------------------|

F
e|---------------------------------|
B|---------------------------------|
G|---0---0---0---0---0---0---0---0-|
D|-------------0---------------0---|
A|-----3---------------3-----------|
E|-1-------1-------1-------1-------|

Use these chords during the chorus.
   C  Am F
e|--0---0---0--|
B|--1---1---1--|
G|--0---0---0--|
D|--2---2---3--|
A|--3---0---3--|
E|--X---X---1--|

Intro
e|---------0----------------------------------------|
B|----1--1------1---1---1---1---1---1---1---1---1---|
G|--------------------0---------------0-------------|
D|---2----2----2--------------2---------------2-----|
A|-3----3----3----3-------3-------3-------3---------|
E|--------------------------------------------------|

e|--------------------------------------------------|
B|---1---1---1---1---1---1---1---1---1---1----------|
G|-----0---------------0---------------0-----0---0--|
D|-------------2---------------2--------------------|
A|-3-------0-------0-------0-------0-----------3----|
E|-----------------------------------------1--------|

e|-------------------------|
B|-------------------------|
G|---0---0---0---0---0---0-|
D|-----0---------------0---|
A|-------------3-----------|
E|-1-------1-------1-------|

C  Am  F  C
Sweet Disposition,
C  Am  F
Never Too Soon,
C  Am  F  C  Am  F
Oh, Reckless, Abandon.

C  Am  F  C
Like No One's Watching You
C  Am  F
Like no One.

C
А moment, a love
А dream aloud,
Am
А kiss, a cry
F
Our rights, our wrongs,
C
А moment, a love
А moment, a love

C  Am
Just stay there,
F  C  Am
Cause I'll be coming over.
F  C
And while our blood is still young
Am
When it's so young
F
It runs
F  C  Am
Won't stop until it's over.
F
Won't stop to surrender.

C  Am  F

C  Am  F  C  Am  F
Songs of desperation
C  Am  F  C
I played them for you
C
А moment, a love
А dream aloud,
Am
А kiss, a cry
F
Our rights, our wrongs,
C
А moment, a love
Am  F
А moment, a love

C  Am
So stay there,
F  C  Am
Cause I'll be coming over.
F  C
And while our blood is still young
Am
When it's so young
F
It runs
F  C  Am
Won't stop until it's over.
F
Won't stop to surrender.

Outro: C  Am  F  C  Am  F  C  Am  F  C   
Наверх