Аккорды Elton John - Town of Plenty

Добавлено: @romashka
Дата добавления: 03 Марта 2024г.
Рейтинг:
0.0
Просмотров: 38
Транспонировать - +
[Intro]
G|---------------------------------|---------------------------------|
D|---------------------------------|---------------------------------|
A|----------------------------5----|6-----------6--------------------|
E|6--------------6-----------------|----------------1-------1---3----|

G|---------------------------------|---------------------------------|
D|---------------------------------|---------------------------------|
A|---------------------------------|6-----------6--------------------|
E|6--------------6------------6----|----------------1-------1---3----|

G|---------------------------------|---------------------------------|
D|---------------------------------|---------------------------------|
A|---------------------------------|6-----------6--------------------|
E|6--------------6------------6----|----------------1-------1---3----|

G|---------------------------------|---------------------------------|
D|---------------------------------|---------------------------------|
A|---------------------------------|6-----------6--------------------|
E|6--------------6------------6----|----------------1-------1---3----|


[Verse]
G|---------------------------------|---------------------------------|
D|---------------------------------|---------------------------------|
A|---------------5-----------------|6--------------------------------|
E|6---------------------------6----|----------------1-------3--------|

G|---------------------------------|---------------------------------|
D|---------------------------------|---------------------------------|
A|---------------5-----------------|6--------------------------------|
E|6---------------------------6----|----------------1-------1---3----|

G|---------------------------------|---------------------------------|
D|---------------------------------|---------------------------------|
A|---------------5-----------------|6--------------------------------|
E|6---------------------------6----|----------------1-------1---3----|

G|---------------------------------|---------------------------------|
D|---------------------------------|---------------------------------|
A|---------------5-----------------|6--------------------------------|
E|6---------------------------6----|----------------1-------3--------|


[Pre-Chorus]
G|---------------------------------|---------------------------------|
D|---------------------------------|---------------------------------|
A|6---6---6---6-/-6---6---6---6----|8---8---6---5--------------------|
E|---------------------------------|----------------6---6---8---6----|

G|---------------------------------|---------------------------------|
D|---------------------------------|---------------------------------|
A|6---6---6---6-/-6---6---6---6----|----------------1----------------|
E|---------------------------------|1-------3---1-----------1---/----|


[Chorus]
G|---------------------------------|---------------------------------|
D|---------------------------------|---------------------------------|
A|----------------5----------------|6-----------6--------------------|
E|6-------8-------------------6----|----------------1-------3--------|

G|---------------------------------|---------------------------------|
D|---------------------------------|---------------------------------|
A|---------------------------------|6-----------6--------------------|
E|6--------------6------------6----|----------------1-------1---3----|

G|---------------------------------|---------------------------------|
D|---------------------------------|---------------------------------|
A|---------------------------------|6-----------6--------------------|
E|6--------------6------------6----|----------------1-------1---3----|


[Verse]
G|---------------------------------|---------------------------------|
D|---------------------------------|---------------------------------|
A|---------------5-----------------|6--------------------------------|
E|6---------------------------6----|----------------1-------3--------|

G|---------------------------------|---------------------------------|
D|---------------------------------|---------------------------------|
A|---------------5-----------------|6--------------------------------|
E|6---------------------------6----|----------------1-------1---1----|

G|---------------------------------|---------------------------------|
D|---------------------------------|----------------3-------3--------|
A|---------------5-----------------|6---------------------------5----|
E|6----------6----------------6----|---------------------------------|

G|---------------------------------|---------------------------------|
D|---------------------------------|---------------------------------|
A|---------------5-----------------|6------------------------------/-|
E|6---------------------------6----|----------------1-------1---3----|


[Pre-Chorus]
G|---------------------------------|---------------------------------|
D|---------------------------------|---------------------------------|
A|6---6---6---6-/-6---6---6---6----|8---8---6---5------------------/-|
E|---------------------------------|----------------6---6---8---6----|

G|---------------------------------|---------------------------------|
D|---------------------------------|---------------------------------|
A|6---6---6---6-/-6---6---6---6----|----------------1----------------|
E|---------------------------------|1-------3---1-----------1---/----|


[Chorus]
G|---------------------------------|---------------------------------|
D|---------------------------------|---------------------------------|
A|----------------5----------------|6-----------6--------------------|
E|6-------8-------------------6----|----------------1-------3--------|

G|---------------------------------|---------------------------------|
D|---------------------------------|---------------------------------|
A|----------------------------5----|6-----------6--------------------|
E|6--------------6-----------------|----------------1-------1---3----|

G|---------------------------------|---------------------------------|
D|---------------------------------|---------------------------------|
A|----------------------------5----|6-----------6--------------------|
E|6--------------6-----------------|----------------1-------1---1----|
 

[Pre-Chorus]
G|---------------------------------|---------------------------------|
D|---------------------------------|---------------------------------|
A|6---6---6---6-/-6---6---6---6----|-------------------------------/-|
E|---------------------------------|3-------4-------6-------6--------|

G|---------------------------------|---------------------------------|
D|---------------------------------|---------------------------------|
A|6---6---6---6-/-6---6---6---6----|-------------------------------/-|
E|---------------------------------|3-------4-------6-------6--------|

G|---------------------------------|---------------------------------|
D|---------------------------------|---------------------------------|
A|6---6---6---6-/-6---6---6---6----|----------------1----------------|
E|---------------------------------|3-------4---------------1--------|


[Chorus]
G|---------------------------------|---------------------------------|
D|---------------------------------|---------------------------------|
A|----------------5---/---8--------|6--------------------------------|
E|6-------8-------------------6----|----------------1-------3--------|

G|---------------------------------|---------------------------------|
D|---------------------------------|---------------------------------|
A|---------------------------------|6-----------6--------------------|
E|6--------------6------------6----|----------------1-------1---3----|

G|---------------------------------|---------------------------------|
D|---------------------------------|---------------------------------|
A|----------------------------5----|6-----------6--------------------|
E|6--------------6-----------------|----------------1-------1--------|
 

[Verse]
G|---------------------------------|---------------------------------|
D|---------------------------------|---------------------------------|
A|---------------5-----------------|6--------------------------------|
E|6---------------------------6----|----------------1-------3--------|

G|---------------------------------|---------------------------------|
D|---------------------------------|---------------------------------|
A|---------------5-----------------|6-----------------------1--------|
E|6---------------------------6----|----------------1-----------1----|

G|---------------------------------|---------------------------------|
D|---------------------------------|---------------------------------|
A|---------------5-----------------|6--------------------------------|
E|6---------------------------6----|----------------1-------3--------|

G|---------------------------------|---------------------------------|
D|---------------------------------|---------------------------------|
A|---------------5-----------------|6--------------------------------|
E|6---------------------------6----|----------------1-------3---1----|


[Pre-Chorus]
G|---------------------------------|---------------------------------|
D|---------------------------------|---------------------------------|
A|6---6---6---6-/-6---6---6---6----|8---8---6---5------------------/-|
E|---------------------------------|----------------6---6---8---6----|

G|---------------------------------|---------------------------------|
D|---------------------------------|---------------------------------|
A|6---6---6---6-/-6---6---6---6----|----------------1----------------|
E|---------------------------------|1-------3---1-----------1---/----|


[Chorus]
G|---------------------------------|---------------------------------|
D|---------------------------------|---------------------------------|
A|----------------5----------------|6--------------------------------|
E|6-------8-------------------6----|----------------1-------3--------|

G|---------------------------------|---------------------------------|
D|---------------------------------|---------------------------------|
A|---------------------------------|6-----------6--------------------|
E|6--------------6------------6----|----------------1-------1---3----|

G|---------------------------------|---------------------------------|
D|---------------------------------|---------------------------------|
A|----------------------------5----|6--------------------------------|
E|6--------------6-----------------|----------------1-------3--------|


[Pre-Chorus]
G|---------------------------------|---------------------------------|
D|---------------------------------|---------------------------------|
A|6---6---6---6-/-6---6---6---6----|-------------------------------/-|
E|---------------------------------|3-------4-------6-------6--------|

G|---------------------------------|---------------------------------|
D|---------------------------------|---------------------------------|
A|6---6---6---6-/-6---6---6---6----|-------------------------------/-|
E|---------------------------------|3-------4-------6-------6--------|

G|---------------------------------|---------------------------------|
D|---------------------------------|---------------------------------|
A|6---6---6---6-/-6---6---6---6----|----------------1----------------|
E|---------------------------------|3-------4---------------1--------|


[Chorus]
G|---------------------------------|---------------------------------|
D|---------------------------------|---------------------------------|
A|----------------5---/---8--------|6-----------6--------------------|
E|6-------8-------------------6----|----------------1-------3--------|

G|---------------------------------|---------------------------------|
D|---------------------------------|---------------------------------|
A|---------------------------------|6-----------6--------------------|
E|6--------------6------------6----|----------------1-------1---3----|


[Pre-Chorus]
G|---------------------------------|---------------------------------|
D|---------------------------------|---------------------------------|
A|6---6---6---6-/-6---6---6---6----|-------------------------------/-|
E|---------------------------------|3-------4-------6-------6--------|

G|---------------------------------|---------------------------------|
D|---------------------------------|---------------------------------|
A|6---6---6---6-/-6---6---6---6----|-------------------------------/-|
E|---------------------------------|3-------4-------6-------6--------|

G|---------------------------------|---------------------------------|
D|---------------------------------|---------------------------------|
A|6---6---6---6-/-6---6---6---6----|----------------1----------------|
E|---------------------------------|3-------4---------------1--------|


[Chorus]
G|---------------------------------|---------------------------------|
D|---------------------------------|---------------------------------|
A|----------------5---/---13--\----|6---------------8-------6---5----|
E|6-------8------------------------|---------------------------------|

G|---------------------------------|---------------------------------|
D|---------------------------------|---------------------------------|
A|---------------------------------|6-----------6--------------------|
E|6--------------6------------6----|----------------1-------1---3----|

G|---------------------------------|---------------------------------|
D|---------------------------------|---------------------------------|
A|---------------------------------|6-----------6--------------------|
E|6--------------6------------6----|----------------1-------1---3----|

G|---------------------------------|---------------------------------|
D|---------------------------------|---------------------------------|
A|---------------------------------|6-----------6--------------------|
E|6--------------6------------6----|----------------1-------1---3----|

G|---------------------------------|---------------------------------|
D|---------------------------------|---------------------------------|
A|---------------------------------|6-----------6--------------------|
E|6--------------6------------6----|----------------1-------1---3----|


[Outro] Repeat this
G|---------------------------------|---------------------------------|
D|---------------------------------|---------------------------------|
A|---------------------------------|6-----------6--------------------|
E|6--------------6------------6----|----------------1-------1---3----|


************************************************************************

/ = Slide up
\ = Slide down

************************************************************************
Наверх