Аккорды Emei - Regrets

Добавлено: @romashka
Дата добавления: 20 Мая 2024г.
Рейтинг:
0.0
Просмотров: 18
Note: If you want easy cords just play the G and C chords.

[Chords]
[Gmaj7     320002]
[Cadd#11   x32552]   or [x32012]

Capo: No

[Intro]
Gmaj7

[Intro]
    Gmaj7
e|-------------------------------|-------------------------------|
B|-------------------------------|-------------------------------|
G|-------------------------------|-------------------------------|
D|------4------4------4------4---|------4------4------4------4---|
A|-------------------------------|-------------------------------|
E|---3------3------3------3------|---3------3------3------3------|

[Verse]
    Cadd#11
e|-------------------------------|-------------------------------|
B|-------------------------------|-------------------------------|
G|-------------------------------|-------------------------------|
D|------4------4------4------4---|------4------4------4------4---|
A|---3------3------3------3------|---3------3------3------3------|
E|-------------------------------|-------------------------------|

[Verse 1]
Gmaj7
Shouldn’t have gone to college,
Gmaj7
Should’ve been born a millionaire,
Cadd#11
Could’ve been writing songs,
Cadd#11
Instead of learning how to share,
     Gmaj7
If I moved to LA sooner,
Gmaj7
Or had longer, blonder hair,
Cadd#11                    C
Maybe I wouldn’t be scared.

[Chorus]
Gmaj7
La-la, la-la, la-la,
         Cadd#11
Lying in bed counting,
   Cadd#11
Regrets,
     Cadd#11
Like 1, 2,
Gmaj7
La-la, la-la, la-la,
         Cadd#11
Lying in bed counting,
   Cadd#11
Regrets,
     Cadd#11
Like 1, 2,
N.C.
3, 4.

[Verse 2]
Gmaj7
Shouldn’t have talked about the wrong people,
Gmaj7
Should’ve spent time with parents, they get old,
Cadd#11
Should’ve spent money on eating more natural,
Cadd#11
Should’ve known that my ex was an asshole,
Gmaj7
Could’ve cared more, but I should have cared less,
Gmaj7
Wouldn’t have wasted time being upset,
Cadd#11                                Cadd#11
Wouldn’t treat everyone like a project.

[Chorus]
Gmaj7
La-la, la-la, la-la,
         Cadd#11
Lying in bed counting,
   Cadd#11
Regrets,
     Cadd#11
Like 1, 2,
Gmaj7
La-la, la-la, la-la,
         Cadd#11
Lying in bed counting,
   Cadd#11
Regrets.

[Bridge]
    G
The ones I said goodbye to,
    G
The ones I gave my time to,
    C
The way I never listened,
    C
The way I should’ve tried to,
G
Ones I tried controlling,
    G
The ones who left me hopeless,
    C
The way that I’m afraid,
     C
I’ve made it all a game.

[Outro]
Gmaj7
La-la, la-la, la-la,
         Cadd#11
Lying in bed counting,
   Cadd#11
Regrets,
     Cadd#11
Like 1, 2,
Gmaj7
La-la, la-la, la-la,
         Cadd#11
Lying in bed counting,
   C
Regrets.
Но если и музыка нас оставит, что будет тогда с нашим миром? (Гоголь)
Мы стремимся к созданию контента, соответствующего всем нормам законодательства и уважающего интеллектуальную собственность. Мы также придаем большое значение тому, чтобы не задеть никого и не оскорбить чьи-либо чувства. Если у вас есть вопросы или претензии по размещенному материалу, пожалуйста, сообщите нам об этом.
Шрифт
-
0
+
Прокрутка
-
0
+
Стоп
Наверх