Аккорды Enrique Iglesias - Can't Escape My Love

Добавлено: @vitos
Дата добавления: 20 Мая 2016г.
Рейтинг:
0.0
Просмотров: 499
Chords used:
B  (799877) or (223332)
E  (779997) or (022100)
C#m (466444)
F# (244322)


Intro:

Guitar 1
------------------------------------------------------------|
------------------------------------------------------------|
-------------------------------4----4----3------------------|
--------9---9---9---------------------------4---------------|
------9---9---7---7----------6---6--------------------------|
--7-----------------------4-----------2---------------------|

Guitar 2
------------------------------------------------------------|
------------------------------------------------------------|
-------4-4--------------------------------------------------|
----------------------------6-6-------4-4-4-4---------------|
---------------7-7-7-7--------------------------------------|
------------------------------------------------------------|

this is repeated throughout the whole song

this is played in the parts in which the genius does not sing

----7---7/6---------7--------7--7/6/7----7/9----------------|
------------6-----------------------------------------------|
------------------------------------------------------------|
------------------------------------------------------------|
------------------------------------------------------------|
------------------------------------------------------------|
Но если и музыка нас оставит, что будет тогда с нашим миром? (Гоголь)
Мы стремимся к созданию контента, соответствующего всем нормам законодательства и уважающего интеллектуальную собственность. Мы также придаем большое значение тому, чтобы не задеть никого и не оскорбить чьи-либо чувства. Если у вас есть вопросы или претензии по размещенному материалу, пожалуйста, сообщите нам об этом.
Шрифт
-
0
+
Прокрутка
-
0
+
Стоп
Наверх