Аккорды Евгений Коновалов - А куда бежать

Добавлено: @romashka
Дата добавления: 28 Июня 2020г.
Рейтинг:
0.0
Просмотров: 41
Транспонировать - +
Вступление: Bm F#m C#7 F#m F# Bm F#m C#7 F#m

e|------------------------------------------------------------------------|
B|-------3-5-3--5-3-----------------------------------------------------5-|
G|------------------6-4--6-4-6-7-6-4-6-7-6------4---4--6-4----------6-7---|
D|-4-4-4------------------------------------------7--------7-6-7--7-------|
A|------------------------------------------4-4---------------------------|
E|------------------------------------------------------------------------|

e|--------------------------------------------------------------------|
B|-----3-5-3--5-3-----------------------------------6-----------------|
G|----------------6-4--6-4-6-7-6-4-6-7-6------4--------7-6-4--6-4-----|
D|-4-4------------------------------------------7-6---------------6-4-|
A|----------------------------------------4-4-------------------------|
E|--------------------------------------------------------------------|

         C#7                 F#m
Скрыть обман не смог, не простила ты,
         F#               Bm
Взглядом на порог мне твердишь уйти.
Bm          E             A            D
Жили дружбой и доверием с ног до головы,
Bm         F#m       Bm    C#7    F#m
Но твои открыты двери, мне пора, увы.


    C#7             F#m 
А куда бежать? Да куда идти?
        F#               Bm
Только снег и дождь на моём пути.
   Bm               E         A             D
Растерял я всё, что было, закипела в венах кровь,
        Bm            F#m   Bm C#7 F#m
Сделал всё, чтоб ты забыла про  любовь.


        C#7        F#m
Кровь горячая, ой, дурная кровь,
       F#     Bm
Да не зрячая, поздняя любовь.
Bm          E         A           D
Бес попутал, дорогая, боль свою забудь,
 Bm      F#m        Bm       C#7 F#m 
Пропаду один, я знаю, ты со мною будь! 


    C#7             F#m 
А куда бежать? Да куда идти?
        F#               Bm
Только снег и дождь на моём пути.
   Bm               E         A             D
Растерял я всё, что было, закипела в венах кровь,
        Bm            F#m   Bm C#7 F#m
Сделал всё, чтоб ты забыла про  любовь.


Проигрыш: Bm F#m C#7 F#m F# Bm F#m C#7 F#m Gm

e|------------------------------------------------------------------------|
B|-----3-5-3--5-3-----------------------------------------------------5-7-|
G|----------------6-4--6-4-6-7-6-4-6-7-6------4---4--6-4----------6-7-----|
D|-4-4------------------------------------------7--------7-6-7--7---------|
A|----------------------------------------4-4-----------------------------|
E|------------------------------------------------------------------------|

e|---------------------------------------------------------------------------------|
B|-7-5---7-7-5---7-7-5---7-7-5-----------------------------------6-----------------|
G|-----7-------7-------7-------7-4--6-4-4-6-6-4-6-7-6------4--------7-6-4--6-4-----|
D|-----------------------------------------------------------7-6---------------6-4-|
A|-----------------------------------------------------4-4-------------------------|
E|---------------------------------------------------------------------------------|

    D7              Gm          
А куда бежать? Да куда идти?
        G                Cm        
Только снег и дождь на моём пути.
     Cm             F         A#            D#
Растерял я всё, что было, закипела в венах кровь,
        Cm            Gm   Cm  D7 Gm
Сделал всё, чтоб ты забыла про любовь,
        Cm            Gm   Cm  D7 Gm
Сделал всё, чтоб ты забыла про любовь.
Наверх