Аккорды Евгений Коновалов - Комочек счастья

Добавлено: @romashka
Дата добавления: 07 Июля 2020г.
Рейтинг:
0.0
Просмотров: 99
Транспонировать - +
Вступление: C#7 F#m B E A F#m G# C#m C#7 F#m B E A F#m G# C#m G#

e|---7-7-5----5-5-4----4-4-2-4-2----------------7---7-5----5---5-4----4---4-2-4-2---------------|
B|-------------------------------5-4-5-4---5--------------------------------------5-4-5-4-------|
G|-6--------4--------2------------------------6---6------4---4------2---2-------------------8-6-|
D|---------------------------------------6------------------------------------------------6-----|
A|----------------------------------------------------------------------------------------------|
E|----------------------------------------------------------------------------------------------|

C#m                                              F#m
Чудо родилось, чудо явилось ласковым солнцем не свет,
 G#                                                              C#m
Ждали мы с мамочкой, здравствуй же, лапочка, счастья комочек, привет!
C#m                               C#7             F#m          
Бантики, шарики, фото на память, дружной семьей домой,
F#m                 C#m                F#m     G#         C#m
Будем растить тебя, будем любить тебя, будем водиться с тобой.

C#7                F#m     B                 E
Маленький комочек счастья, на моих больших руках,
A                   F#m    G#             C#m       
Целиком в твоей мы власти, даже слезы на глазах.
C#7               F#m   B                   E
А в душе вновь умиление лишь от взгляда твоего,
A               F#m           G#                C#m G#
Наш комочек, с днем рождения, и дай Бог тебе всего!

 C#m                                             F#m
Смотрит украдкой девочка сладкая в самые первые дни,
G#                                                       C#m
Губки как бантики, щечки как фантики, глазки как будто огни.
C#m                         C#7                    F#m
И не пугают бессонные ночи, лишь бы быть рядом с тобой,
F#m                 C#m                F#m      G#       C#m
Будем растить тебя, будем любить тебя, будем гордиться тобой!

C#7                F#m     B                 E
Маленький комочек счастья, на моих больших руках,
A                   F#m    G#             C#m       
Целиком в твоей мы власти, даже слезы на глазах.
C#7               F#m   B                   E
А в душе вновь умиление лишь от взгляда твоего,
A               F#m           G#                C#m
Наш комочек, с днем рождения, и дай Бог тебе всего!

Проигрыш: Gm C F A# Gm A Dm D7 Gm C F A# Gm A Dm

e|---8-8-6----6-6-5----5-5-3-5-3----------------8---8-6----6---6-5----5---5-3-5-3---------------|
B|-------------------------------6-5-6-5---6--------------------------------------6-5-6-5-------|
G|-7--------5--------3------------------------7---7------5---5------3---3-------------------9-7-|
D|---------------------------------------7------------------------------------------------7-----|
A|----------------------------------------------------------------------------------------------|
E|----------------------------------------------------------------------------------------------| 

D7                 Gm      C                 F
Маленький комочек счастья, на моих больших руках,
A#                  Gm     A              Dm       
Целиком в твоей мы власти, даже слезы на глазах.
D7                Gm    C                   F
А в душе вновь умиление лишь от взгляда твоего,
A#              Gm            A                 Dm
Наш комочек, с днем рождения, и дай Бог тебе всего!
A#              Gm            A                 D7
Наш комочек, с днем рождения, и дай Бог тебе всего!

Проигрыш: Gm C F A# Gm A Dm

e|---8---8-6----6---6-5----5---5-3-5-3---------------|
B|-------------------------------------6-5-6-5-------|
G|-7---7------5---5------3---3-------------------9-7-|
D|---------------------------------------------7-----|
A|---------------------------------------------------|
E|---------------------------------------------------| 
Наверх