Аккорды Five Finger Death Punch - Undone

Добавлено: @romashka
Дата добавления: 17 Января 2018г.
Рейтинг:
0.0
Просмотров: 240
Транспонировать - +
Intro x2:
   Bm              A           G
1)-------2---------------0--2--------2--------
2)-----3----3---3------2-----------3----3---3-
3)---4--------4------2-----------0--------0---
4)--------------------------------------------
5)-2---------------0--------------------------
6)-----------------------------3--------------

   A
1)-----------------
2)-3-----2-----3-2-
3)---2-----2-------
4)-----2-----2-----
5)-0---------------
6)-----------------

Verse:
Bm   A          G            A
Sometimes the things get so jaded
Bm        A            G  A
Still my heart slowly beats
Bm   A     G               A
Sometimes life gets complicated
Bm         A                G   A
Still the world around me sleeps

Chorus:
Bm       
I'm ashamed, not to blame
Bm
Don't wanna think about it
G
Who I am, what I've done
Em
How do I carry on?
Bm
Wanna change, turn the page
Bm
Don't wanna think about it
 G          Em
How do I undo what's done?

   B5                                C5 B5 C5 B5
3)-4-4--4-4-4-4--4-4-4-4-4--4-4-4-4-4--5-4-5-4-
4)-4-4--4-4-4-4--4-4-4-4-4--4-4-4-4-4--5-4-5-4-
5)-2-2--2-2-2-2--2-2-2-2-2--2-2-2-2-2--3-2-3-2-
   V v  v ^ v ^  V ^ v ^ v  V ^ v ^ v  V v V v  
                                    Undo what's
   B5                                  C5
3)-4-4--4-4-4-4--4-4-4-4-4--4-4-4-4-4------3-
4)-4-4--4-4-4-4--4-4-4-4-4--4-4-4-4-4----3---
5)-2-2--2-2-2-2--2-2-2-2-2--2-2-2-2-2--5-----
   V v  v ^ v ^  V ^ v ^ v  V ^ v ^ v  
Done 

Bridge:
   Bm              A           G
1)-------2---------------0--2--------2--------
2)-----3----3---3------2-----------3----3---3-
3)---4--------4------2-----------0--------0---
4)--------------------------------------------
5)-2---------------0--------------------------
6)-----------------------------3--------------

   A
1)-----------------
2)-3-----2-----3-2-
3)---2-----2-------
4)-----2-----2-----
5)-0---------------
6)-----------------

Verse:
Bm   A          G            A
Sometimes the things get so faded
Bm     A                  G A
How is it that you can't see?
Bm   A     G              A
Sometimes life seems overrated
Bm        A             G  A
Makes my heart slowly bleed

Chorus:
Bm       
I'm ashamed, not to blame
Bm
Don't wanna think about it
G
Who I am, what I've done
Em
How do I carry on?
Bm
Wanna change, turn the page
Bm
Don't wanna think about it
 G          Em
How do I undo what's done?
   B5                                C5 B5 C5 B5
3)-4-4--4-4-4-4--4-4-4-4-4--4-4-4-4-4--5-4-5-4-
4)-4-4--4-4-4-4--4-4-4-4-4--4-4-4-4-4--5-4-5-4-
5)-2-2--2-2-2-2--2-2-2-2-2--2-2-2-2-2--3-2-3-2-
   V v  v ^ v ^  V ^ v ^ v  V ^ v ^ v  V v V v  
                                    Undo what's
   B5                                  C5
3)-4-4--4-4-4-4--4-4-4-4-4--4-4-4-4-4------3-
4)-4-4--4-4-4-4--4-4-4-4-4--4-4-4-4-4----3---
5)-2-2--2-2-2-2--2-2-2-2-2--2-2-2-2-2--5-----
   V v  v ^ v ^  V ^ v ^ v  V ^ v ^ v  
Done 
   B5                                C5 B5 C5 B5
3)-4-4--4-4-4-4--4-4-4-4-4--4-4-4-4-4--5-4-5-4-
4)-4-4--4-4-4-4--4-4-4-4-4--4-4-4-4-4--5-4-5-4-
5)-2-2--2-2-2-2--2-2-2-2-2--2-2-2-2-2--3-2-3-2-
   V v  v ^ v ^  V ^ v ^ v  V ^ v ^ v  V v V v  
                                    Undo what's
   B5                                  C5
3)-4-4--4-4-4-4--4-4-4-4-4--4-4-4-4-4------3-
4)-4-4--4-4-4-4--4-4-4-4-4--4-4-4-4-4----3---
5)-2-2--2-2-2-2--2-2-2-2-2--2-2-2-2-2--5-----
   V v  v ^ v ^  V ^ v ^ v  V ^ v ^ v  
Done 

Bridge:
   Bm              A           G
1)-------2---------------0--2--------2--------
2)-----3----3---3------2-----------3----3---3-
3)---4--------4------2-----------0--------0---
4)--------------------------------------------
5)-2---------------0--------------------------
6)-----------------------------3--------------

   A
1)-----------------
2)-3-----2-----3-2-
3)---2-----2-------
4)-----2-----2-----
5)-0---------------
6)-----------------

Chorus:
Bm       
I'm ashamed, not to blame
Bm
Don't wanna think about it
G
Who I am, what I've done
Em
How do I carry on?
Bm
Wanna change, turn the page
Bm
Don't wanna think about it
 G          Em
How do I undo what's done?

Bm       
I'm ashamed, not to blame
Bm
Don't wanna think about it
G
Who I am, what I've done
Em
How do I carry on?
Bm
Wanna change, turn the page
Bm
Don't wanna think about it
 G          Em
How do I undo what's done?

Outro: 
   Bm              A           G
1)-------2---------------0--2--------2--------
2)-----3----3---3------2-----------3----3---3-
3)---4--------4------2-----------0--------0---
4)--------------------------------------------
5)-2---------------0--------------------------
6)-----------------------------3--------------

   A
1)-----------------
2)-3-----2-----3-2-
3)---2-----2-------
4)-----2-----2-----
5)-0---------------
6)-----------------

Бой: v v V v ^  v v V v ^
Наверх