Аккорды Fort Royal - Яд на губах

Добавлено: @romashka
Дата добавления: 13 Января 2023г.
Рейтинг:
0.0
Просмотров: 7
Транспонировать - +
[Вступление]: (или на аккордах
E|--103101--0-010------0----015310|--103101--0-010------0----015310|
B|-----------3---3---13-31--------|-----------3---3---13-31--------|
G|------------------3-------------|------------------3-------------|
D|0-------------------------------|0-------------------------------|
A|--------3-------1-------3-------|--------3-------1-------3-------|
E|--------------------------------|--------------------------------|

[Куплет]:
Dm                  C Bb               C
  Ты забыла вкус воды, ты привыкла молчать.
Dm       C
На окне вянут цветы.
Bb                 C
  Есть одна забава — разливай отраву.

[Проигрыш]:
Dm C Bb C

[Куплет]:
Dm                 C Bb              C
  На некрашеной стене виден берег и дом,
Dm           C
Света нет в тёмном окне.
Bb                  C
  Всё твоё по праву. Разливай отраву.

[Припев]:
Dm                    Bb
Яд на губах — сладкий вкус свободы.
Gm           A
  Тайный мир — в твоих глазах.
Dm                Bb
Яд на губах и глоток для коды.
Gm         C
  Попробуй. Полюбишь.

[Соло]:
Dm Bb A Bb
Dm Bb Gm A

[Куплет]:
Dm                 C Bb                 C
  Не закончится зима, берег слился с водой.
Dm              C
Выход — прост, знаешь сама.
Bb                  C
  Есть одна забава — разливай отраву.

[Припев]:
Dm                    Bb
Яд на губах — сладкий вкус свободы.
Gm           A
  Тайный мир — в твоих глазах.
Dm                Bb
Яд на губах и глоток для коды.
Gm         C
  Попробуй. Полюбишь.

[Завершение]:
(или на аккордах 4 раза - Dm C Bb C, и в заключении Dm)
E|--103101--0-010------0----015310|--103101--0-010------0----015310|
B|-----------3---3---13-31--------|-----------3---3---13-31--------|
G|------------------3-------------|------------------3-------------|
D|0-------------------------------|0-------------------------------|
A|--------3-------1-------3-------|--------3-------1-------3-------|
E|--------------------------------|--------------------------------|

E|--103101--0-010------0----015310|--103101--0-010------0----015310|----101-|
B|-----------3---3---13-31--------|-----------3---3---13-31--------|-------3|
G|------------------3-------------|------------------3-------------|--------|
D|0-------------------------------|0-------------------------------|--------|
A|--------3-------1-------3-------|--------3-------1-------3-------|--------|
E|--------------------------------|--------------------------------|--------|
Наверх