Аккорды Francesco Guccini - L'ultima Thule

Добавлено: @romashka
Дата добавления: 01 Апреля 2024г.
Рейтинг:
0.0
Просмотров: 17
Транспонировать - +
[Intro]

e ----1--0--------------0-------------0----1----3---0-----1---0------------0---1---0--------------|
B---------------3----------------3-----------------------------------3---------------------1------|
G-------------------------------------------------------------------------------------------------|
D-------------------------------------------------------------------------------------------------|
A-------------------------------------------------------------------------------------------------|
E-------------------------------------------------------------------------------------------------|

e----1--0--------------0------------0----1----3---0-----1---0----------------------------------|
B---------------3---------------3--------------------------------------3-----------------------|
G----------------------------------------------------------------------------------------------|
D----------------------------------------------------------------------------------------------|
A----------------------------------------------------------------------------------------------|
E----------------------------------------------------------------------------------------------|

[Intro]
Dm C Bb Am  Bb C Dm
Dm C Bb Am  Bb C Dm

[Verse 1]
Dm
Io che ho doppiato tre volte Capo Horn
         C
e ho navigato sette volte i sette mari
           F
e ho visto mostri ed animali rari,
        A4                     A
l'anfesibena, le sirene, l'unicorno.
Dm
Io che tornavo fiero ad ogni porto
         C
dopo una lotta, dopo un arrembaggio,
             F
non son più quello e non ho più il coraggio
        A4                   A
di veleggiare su un vascello morto.

[Verse 2]
         D
Dov'è la ciurma che mi accompagnava
         C                D
e assecondava ogni ribalderia?
         D
Dov'è la forza che ci circondava?
         C           G          A4 A
Ora si è spenta ormai, sparita via.

[Verse 3]
Dm
Guardo le vele pendere afflosciate
         C
con i cordami a penzolar nel vuoto,
            F
che sbatton lenti contro le murate
       A4                    A
con un moto continuo, senza scopo.
  Dm
E vedo in aria un'insensata danza
            C
di strani uccelli contro il cielo bigio
   F
cantare un canto in questo mondo grigio,
         A4                    A
un canto sordo ormai, senza speranza.

[Verse 4]
         D
E qui da solo penso al mio passato,
          C                   D
vado a ritroso e frugo la mia vita,
    D
una saga smarrita ed infinita
               C          G            A4  A
di quel che ho fatto, di quello che è stato.

Dm C Bb Am  Bb C Dm
Cm C Bb Am  Bb C Dm

[Verse 5]
   Dm
Le verità non vere in cui credevo
    C
scoppiavano spargendosi d'intorno,
             F
ma altre ne avevo e giorno dopo giorno
     A4                  A
se morivo più forte rinascevo.
   Dm
E ora son solo e non ho più il conforto
           C
di amici andati e sempre più mi assale
   F
la noia a vuotar l'ultimo boccale
           A4                  A
come un pensiero che mi si è ritorto.
     D
Ma ancora farò vela e partirò
      C                   D
io da solo, e anche se sfinito,
            D
la prua indirizzo verso l'infinito
    C                 G          A4 A
che prima o poi, lo so, raggiungerò.

Dm C Bb Am  Bb C Dm
Dm C Bb Am  Bb C Dm

[Verse 6]
  Dm
L'Ultima Thule attende al Nord estremo,
         C
regno di ghiaccio eterno, senza vita,
     F
e lassù questa mia sarà finita
     A4                   A
nel freddo dove tutti finiremo.

[Verse 7]
         D
L'Ultima Thule attende e dentro il fiordo
         C                     D
si spegnerà per sempre ogni passione,
        D
si perderà in un'ultima canzone
   C                  G           A4   A
di me e della mia nave anche il ricordo.

Dm C Bb Am

[Outro]
   F              G               D
di me e della mia nave anche il ricordo. 
Наверх