Аккорды Gabe Bondoc - Still Feel Like Your Man

Добавлено: @romashka
Дата добавления: 27 Мая 2024г.
Рейтинг:
0.0
Просмотров: 12
[Intro/Verse]
e|-x-----x-----------------|
B|-x-----x-----------------|
G|-6-----7-----------------| 
D|-4-----5-----------------|
A|-4-----7-----5--7-5------|
E|-5-5-5-5-5-7--------7----|  
The prettiest girl in the she wants me...

[Chorus]
e|-x--x--x--x---------------|
B|-x--3--5--3---------------|
G|-7--4--6--3---------------|
D|-5--5--7--2---------------|
A|-7--x--5--x---------------|
E|-0--5--x--2---------------|
      T     T
Cuz I still feel like your man
Still feel like your man

e|-x--x--x------x--x---------|
B|-x--3--3--  --5--5---------|
G|-7--4--3--NC--7--6---------|
D|-5--5--2--  --7--7---------|
A|-7--x--x--  --x--x---------|
E|-0--5--2------7--5---------|
      T  T         T
Cuz I still feel like your man
Still feel like your man
I still feel like your man

[Verse]
e|-x-----x-----------------|
B|-x-----x-----------------|
G|-6-----7-----------------|  
D|-4-----5-----------------|
A|-4-----7-----5--7-5------|
E|-5-5-5-5-5-7--------7----|
I still keep your shampoo in my shower...

[Chorus]
e|-x--x--x--x---------------|
B|-x--3--5--3---------------|
G|-7--4--6--3---------------|
D|-5--5--7--2---------------|
A|-7--x--5--x---------------|
E|-0--5--x--2---------------|
      T     T
Cuz I still feel like your man
Still feel like your man

e|-x--x--x------x--x---------|
B|-x--3--3--  --5--5---------|
G|-7--4--3--NC--7--6---------|
D|-5--5--2--  --7--7---------|
A|-7--x--x--  --x--x---------|
E|-0--5--2------7--5---------|
      T  T         
Cuz I still feel like your man
Still feel like your man
I still feel like your man

[Bridge]
...slow...
e|-x-------x--------|
B|-6-------6--------|
G|-7-5-7-5-5-7-5----|
D|-5-------5--------|   x3
A|-6-------x--------|
E|-x-------6--------|
Every since the day we met...

e|-x--x-------------|
B|-6--3-------------|
G|-7--4-------------|
D|-5--5-------------|
A|-6--x-------------|
E|-x--5-------------|
      T
Still like to leave the party early and go home...

[Chorus]
e|-x--x--x--x---------------|
B|-x--3--5--3---------------|
G|-7--4--6--3---------------|
D|-5--5--7--2---------------|
A|-7--x--5--x---------------|
E|-0--5--x--2---------------|
      T     T
Cuz I still feel like your man
Still feel like your man

e|-x--x--x------x--x---------|
B|-x--3--3--  --5--5---------|
G|-7--4--3--NC--7--6---------|
D|-5--5--2--  --7--7---------|
A|-7--x--x--  --x--x---------|
E|-0--5--2------7--5---------|
      T  T         T
Cuz I still feel like your man
Still feel like your man
I stil feel like your man

[Outro]
...triplets...
e|-x--x--x--x--------|
B|-5--3--5--7--------|
G|-6--4--6--7--------|
D|-7--5--7--7--------|
A|-5--x--5--9--------|
E|-0--5--0--7--------|
      T
You're the one, you're the one, you're the one, you're the one for me...

e|-x--x--x--x---------------|
B|-x--3--5--3---------------|
G|-7--4--6--3---------------|
D|-5--5--7--2---------------|
A|-7--x--5--x---------------|
E|-0--5--x--2---------------|
      T     T
Cuz I still feel like your man
Still feel like your man

e|-x--x--x------x--x---------|
B|-x--3--3------5--5---------|
G|-7--4--3--NC--7--6---------|
D|-5--5--2------7--7---------|
A|-7--x--x------x--x---------|
E|-0--5--2------7--5---------|
      T  T         T
Cuz I still feel like your man
Still feel like your man
I stil feel like your man

************************************

| x  Dead note

************************************
Музыка не только фактор облагораживающий, воспитательный. Музыка – целитель здоровья (Бехтерев)
Мы стремимся к созданию контента, соответствующего всем нормам законодательства и уважающего интеллектуальную собственность. Мы также придаем большое значение тому, чтобы не задеть никого и не оскорбить чьи-либо чувства. Если у вас есть вопросы или претензии по размещенному материалу, пожалуйста, сообщите нам об этом на указанный адрес электронной почты: [email protected].
Шрифт
-
0
+
Прокрутка
-
0
+
Стоп
Наверх