Аккорды George Harrison - What Is Life

Добавлено: @romashka
Дата добавления: 20 Июня 2021г.
Рейтинг:
0.0
Просмотров: 135
Транспонировать - +
e|---------------------------------------------------------------------|
B|---------------------------------------------------------------------|
G|---------------------------------------------------------------------|
D|---------------------------------------------------------------------|
A|--7--6--4---2-----6--4--2-0---0-0-2----------------------------------|
E|---------------------------------------------------------------------|
 
e|---------------------------------------------------------------------|
B|---------------------------------------------------------------------|
G|---------------------------------------------------------------------|
D|---------------------------------------------------------------------|
A|--7--6--4---2-----6--4--2-0---0-0-2--4--2----------------------------|
E|---------------------------------------------------------------------|
Repeat 4x
 
C A
 
       D             A
What I feel, I can't say
       Bm                    C  G       A  A7
But my love is there for you anytime of day
                D             A
But if it's not love that you need
          Bm                  C    G        A   A7
Then I'll try my best to make everything succeed
 
         D    A     G                 D A G
Tell me, what is my life without your lo ve?
         D   A  G         D A G      C   C A
Tell me, who am I without you, by my side?
 
       D           A
What I know, I can do
     Bm                  C    G        A   A7
If I give my love now to everyone like you
                D             A
But if it's not love that you need
          Bm                  C    G        A   A7
Then I'll try my best to make everything succeed
 
         D    A     G                 D A G
Tell me, what is my life without your lo ve?
         D   A  G         D A G      C   C A
Tell me, who am I without you, by my side?
         D    A     G                 D A G
Tell me, what is my life without your lo ve?
         D   A  G         D A G      C   C A
Tell me, who am I without you, by my side?
  
e|---------------------------------------------------------------------|
B|---------------------------------------------------------------------|
G|---------------------------------------------------------------------|
D|---------------------------------------------------------------------|
A|--7--6--4---2-----6--4--2-0---0-0-2----------------------------------|
E|---------------------------------------------------------------------|
 
e|---------------------------------------------------------------------|
B|---------------------------------------------------------------------|
G|---------------------------------------------------------------------|
D|---------------------------------------------------------------------|
A|--7--6--4---2-----6--4--2-0---0-0-2--4--2----------------------------|
E|---------------------------------------------------------------------|
 
C A
 
       D             A
What I feel, I can't say
       Bm                    C  G       A  A7
But my love is there for you anytime of day
                D             A
But if it's not love that you need
          Bm                  C    G        A   A7
Then I'll try my best to make everything succeed
 
         D    A     G                 D A G
Tell me, what is my life without your lo ve?
         D   A  G         D A G      C   C A
Tell me, who am I without you, by my side?
         D    A     G                 D A G
Tell me, what is my life without your lo ve?
         D   A  G         D A G      C   C A
Tell me, who am I without you, by my side?
 
         D    A     G                 D A G
Tell me, what is my life without your lo ve?
         D   A  G         D A G      C   C A
Tell me, who am I without you, by my side?
         D    A     G                 D A G
Tell me, what is my life without your lo ve?
         D   A  G         D A G      C   C A
Tell me, who am I without you, by my side? . . .

Capo II
Наверх