Аккорды Glaza - Волны

Добавлено: @romashka
Дата добавления: 30 Декабря 2020г.
Рейтинг:
0.0
Просмотров: 7
Транспонировать - +
E|-----------------------------|-----------------------------|
B|-----8-----6-8-----8-----6---|-----8-----6-8-----8-----6---|
G|---7-------------7-----------|---7-------------7---------7-|
D|-5-------5-----5-------5-----|-8-------8-----8-------8-----|
A|-----------------------------|-----------------------------|
E|-----------------------------|-----------------------------|     } x2
                 
Бушуют реки стран, 
Сливаются в одну. 
И в окнах океан,
А я хожу по дну.

E|-----------------------------|-----------------------------|
B|-----8-----6-8-----8-----6---|-----8-----6-8-----8-----6---|
G|---7-------------7---------7-|---7-------------7---------7-|
D|-----------------------------|-----------------------------|
A|-6-------6-----6-------6-----|-8-------8-----8-------8-----|
E|-----------------------------|-----------------------------|     } x2

Мы, обитая в воде, научились дышать,
Но образы старых картин появились опять.


Gm                 A#6
А там луна покажет сон,
Мы растворимся в нем.
Gm                A#6
А там маяк укажет путь,
Не даст нам утонуть.

D#                                  F
Станет понятно, когда и на что он готов
D#                                  F     Fsus4 F
В поисках ветра и лучших земных берегов. 


     Gm
     Давай найдем новый смысл,
               A#6
     Что не описать словами.
     D#
     Мы новую жизнь построим,
     Мы лучшую жизнь найдем.
     Gm
     Мы новую жизнь построим,
     F
     Мы лучшую жизнь найдем.
 
     Gm
     Нас море вновь тянет вниз
                A#6
     Мы просто волнами станем.
     D#
     Мы новую жизнь построим,
     Мы лучшую жизнь найдем.
     Gm
     Мы новую жизнь построим,
     F
     Мы лучшую жизнь найдем.


Gm
Вот в пустыне мы, пустые мы, 
И не сделать там глоток воды
Ну как же место нам свое найти?

D#                                  F
Станет понятно, когда и на что он готов
D#                                  F     Fsus4 F
В поисках ветра и лучших земных берегов. 


     Gm
     Давай найдем новый смысл,
               A#6
     Что не описать словами.
     D#
     Мы новую жизнь построим,
     Мы лучшую жизнь найдем.
     Gm
     Мы новую жизнь построим,
     F
     Мы лучшую жизнь найдем.
 
     Gm
     Нас море вновь тянет вниз
                A#6
     Мы просто волнами станем.
     D#
     Мы новую жизнь построим,
     Мы лучшую жизнь найдем.
     Gm
     Мы новую жизнь построим,
     F
     Мы лучшую жизнь найдем.

Gm (или проигрыш из I куплета)
Спеши любить
Спеши любить
Спеши любить
D#
Станет понятно, когда и на что готов
F
Станет понятно, когда и на что готов
D#                               F     Fsus4 F
Станет понятно, когда и на что готов


     Gm
     Давай найдем новый смысл,
               A#6
     Что не описать словами.
     D#
     Мы новую жизнь построим,
     Мы лучшую жизнь найдем.
     Gm
     Мы новую жизнь построим,
     F
     Мы лучшую жизнь найдем.
 
     Gm
     Нас море вновь тянет вниз
                A#6
     Мы просто волнами станем.
     D#
     Мы новую жизнь построим,
     Мы лучшую жизнь найдем.
     Gm
     Мы новую жизнь построим,
     F
     Мы лучшую жизнь найдем.

Gm     355333
A#6    653333
D#     668886 или x65343
F      133211
Fsus4  133311
Наверх