Аккорды Godsmack - Sweet Leaf

Добавлено: @romashka
Дата добавления: 30 Августа 2014г.
Рейтинг:
0.0
Просмотров: 278
Транспонировать - +
|---------------------|
|---------------------|
|---------------------| x3 times
|---------------------|
|-2-2--7-6-5--5--5-7-|
|-2-2--7-6-5--5--5-7-|

Pause

|---------------------|
|---------------------|
|---------------------| x8 times
|---------------------|
|-2-2--7-6-5--5--5-7-|
|-2-2--7-6-5--5--5-7-|

|---------------------------------|
|---------------------------------|
|---------------------------------| x2 times
|-2---0---5---9--2---2-2-2-2-2-2-|
|-2---0---5---9--2---2-2-2-2-2-2-|
|-2---0---5---9--2---2-2-2-2-2-2-|
                    pm. . . . . .

|---------------------|------------|
|---------------------|------------|
|---------------------|------------| x4 times
|---------------------|------------|
|-2-2--7-6-5--5--5-7-|-2-2--7-6-5-|
|-2-2--7-6-5--5--5-7-|-2-2--7-6-5-|

Pause

|---------------------|------------|
|---------------------|------------|
|---------------------|------------| x8 times
|---------------------|------------|
|-2-2--7-6-5--5--5-7-|-2-2--7-6-5-|
|-2-2--7-6-5--5--5-7-|-2-2--7-6-5-|

|---------------------------------|
|---------------------------------|
|---------------------------------| x1 times
|-2---0---5---9--2---2-2-2-2-2-2-|
|-2---0---5---9--2---2-2-2-2-2-2-|
|-2---0---5---9--2---2-2-2-2-2-2-|
                    pm. . . . . .

|----------------------|
|----------------------|
|----------------------| x1 times
|-2---0---5---9--2----|
|-2---0---5---9--2----|
|-2---0---5---9--2----|


|---------------------------------|
|---------------------------------|
|---------------------------------| x1 times
|-2---0---5---9--2---2-2-2-2-2-2-|
|-2---0---5---9--2---2-2-2-2-2-2-|
|-2---0---5---9--2---2-2-2-2-2-2-|
                    pm. . . . . .

|--------------------------------------|
|--------------------------------------|
|--------------------------------------| x1 times
|-2---0---5---9--2---2-2-2--2-2-2--2--|
|-2---0---5---9--2---2-2-2--2-2-2--2--|
|-2---0---5---9--2---2-2-2--2-2-2--2--|
                    pm. . .  . . .


                   |---------------|
                   |---------------|
Play behind rythem |--5-6-5h6p5----|
Solo pice          |------------6--|
X16 times          |---------------|
                   |---------------|



|------------------|
|------------------|
|------------------| x1 times
|-2----4------/6-6-|
|-2----4------/6-6-|
|-2----4------/6-6-|

|-------------------------------------------------------------|
|-------------------------------------------------------------|
|-------------------------------------------------------------| x1 times
|4-6-6---4-6-6---4-6-6--4-6-6--4-6-6-6-6--4---4-4-4--4-4-4--4-|
|4-6-6---4-6-6---4-6-6--4-6-6--4-6-6-6-6--4---4-4-4--4-4-4--4-|
|4-6-6---4-6-6---4-6-6--4-6-6--4-6-6-6-6--4---4-4-4--4-4-4--4-|
                                            pm. . .  . . .
|---------------------|
|---------------------|
|---------------------| x4 times
|---------------------|
|-2-2--7-6-5--5--5-7-|
|-2-2--7-6-5--5--5-7-|

|---------------------|
|---------------------|
|---------------------| x8 times
|---------------------|
|-2-2--7-6-5--5--5-7-|
|-2-2--7-6-5--5--5-7-|

|---------------------------------|
|---------------------------------|
|---------------------------------| x1 times
|-2---0---5---9--2---2-2-2-2-2-2-|
|-2---0---5---9--2---2-2-2-2-2-2-|
|-2---0---5---9--2---2-2-2-2-2-2-|
                    pm. . . . . .

|----------------------|
|----------------------|
|----------------------| x1 times
|-2---0---5---9--2----|
|-2---0---5---9--2----|
|-2---0---5---9--2----|





|---------------------------------|
|---------------------------------|
|---------------------------------| x1 times
|-2---0---5---9--2---2-2-2-2-2-2-|
|-2---0---5---9--2---2-2-2-2-2-2-|
|-2---0---5---9--2---2-2-2-2-2-2-|
                    pm. . . . . .

|--------------------------------------|
|--------------------------------------|
|--------------------------------------| x1 times
|-2---0---5---9--2---2-2-2--2-2-2--2--|
|-2---0---5---9--2---2-2-2--2-2-2--2--|
|-2---0---5---9--2---2-2-2--2-2-2--2--|
                    pm. . .  . . .

|---------------------|
|---------------------|
|---------------------| x20 times
|---------------------|
|-2-2--7-6-5--5--5-7-|
|-2-2--7-6-5--5--5-7-|

|-----------------------|-----------------------|
|-----------------------|-----------------------|
|-9~~----------------12~|-9~~-----------------7~|play behind rythem
|-----------------------|-----------------------| x3 times
|-7~~----------------10~|-7~~-----------------5~|
|-----------------------|-----------------------|
comments powered by Disqus
Наверх