Аккорды Godsmack - Time Bomb

Добавлено: @romashka
Дата добавления: 30 Августа 2014г.
Рейтинг:
0.0
Просмотров: 324
Транспонировать - +
Tuning: Drop C (C G C F A D)
(You can use drop D, D A D G B E, alternately, just move all notes two frets down)

0:15
D|---------------------------------------------------------------------------|
A|---------------------------------------------------------------------------|
F|---------------------------------------------------------------------------|
C|--------7/9-9-9-9-9-9-9/10-107-7/9-9-9-9-9-9-9---------------------------|
G|--------5/7-7-7-7-7-7-7/ 8-8 5-5/7-7-7-7-7-7-7---------------------------|
C|---------------------------------------------------------------------------|

D|---------------------------------------------------------------------------|
A|---------------------------------------------------------------------------|
F|---------------------------------------------------------------------------|
C|--------7/9-9-9-9-9-9-9/127-7/9-9-9-9-9-9-9------------------------------|
G|--------5/7-7-7-7-7-7-7/105-5/7-7-7-7-7-7-7------------------------------|
C|---------------------------------------------------------------------------|

D|---------------------------------------------------------------------------|
A|---------------------------------------------------------------------------|
F|---------------------------------------------------------------------------|
C|--------7/9-9-9-9-9-9-9/10-107-7/9-9-9-9-9-9-9---------------------------|
G|--------5/7-7-7-7-7-7-7/ 8-8 5-5/7-7-7-7-7-7-7---------------------------|
C|---------------------------------------------------------------------------|

D|---------------------------------------------------------------------------|
A|---------------------------------------------------------------------------|
F|---------------------------------------------------------------------------|
C|--------7/9-9-9-9-9-9-9/127-7/9-9-9-9-9-9-9------------------------------|
G|--------5/7-7-7-7-7-7-7/105-5/7-7-7-7-7-7-7------------------------------|
C|---------------------------------------------------------------------------|

1:07
D|---------------------------------------------------------------------------|
A|---------------------------------------------------------------------------|
F|---------------------------------------------------------------------------|
C|-7-9-9-x-x-7-9-9-10-7-7-9-9-x-x-7-9-9-10-7-7-9-9-x-x-7-9-9-10-7-7-9-9-x-x--|
G|-7-9-9-x-x-7-9-9-10-7-7-9-9-x-x-7-9-9-10-7-7-9-9-x-x-7-9-9-10-7-7-9-9-x-x--|
C|-7-9-9-x-x-7-9-9-10-7-7-9-9-x-x-7-9-9-10-7-7-9-9-x-x-7-9-9-10-7-7-9-9-x-x--|

D|---------------------------------------------------------------------------|
A|---------------------------------------------------------------------------|
F|---------------------------------------------------------------------------|
C|-7-9-9-10-7---------------------------------------------------------------|
G|-7-9-9-10-7---------------------------------------------------------------|
C|-7-9-9-10-7---------------------------------------------------------------|

1:28
D|---------------------------------------------------------------------------|
A|---------------------------------------------------------------------------|
F|---------------------------------------------------------------------------|
C|--------7/9-9-9-9-9-9-9/10-107-7/9-9-9-9-9-9-9---------------------------|
G|--------5/7-7-7-7-7-7-7/ 8-8 5-5/7-7-7-7-7-7-7---------------------------|
C|---------------------------------------------------------------------------|

D|---------------------------------------------------------------------------|
A|---------------------------------------------------------------------------|
F|---------------------------------------------------------------------------|
C|--------7/9-9-9-9-9-9-9/127-7/9-9-9-9-9-9-9------------------------------|
G|--------5/7-7-7-7-7-7-7/105-5/7-7-7-7-7-7-7------------------------------|
C|---------------------------------------------------------------------------|

D|---------------------------------------------------------------------------|
A|---------------------------------------------------------------------------|
F|---------------------------------------------------------------------------|
C|--------7/9-9-9-9-9-9-9/10-107-7/9-9-9-9-9-9-9---------------------------|
G|--------5/7-7-7-7-7-7-7/ 8-8 5-5/7-7-7-7-7-7-7---------------------------|
C|---------------------------------------------------------------------------|

D|---------------------------------------------------------------------------|
A|---------------------------------------------------------------------------|
F|---------------------------------------------------------------------------|
C|--------7/9-9-9-9-9-9-9/127-7/9-9-9-9-9-9-9------------------------------|
G|--------5/7-7-7-7-7-7-7/105-5/7-7-7-7-7-7-7------------------------------|
C|---------------------------------------------------------------------------|

D|---------------------------------------------------------------------------|
A|---------------------------------------------------------------------------|
F|---------------------------------------------------------------------------|
C|--------7/9-9-9-9-9-9-9/10-107-7/9-9-9-9-9-9-9---------------------------|
G|--------5/7-7-7-7-7-7-7/ 8-8 5-5/7-7-7-7-7-7-7---------------------------|
C|---------------------------------------------------------------------------|

D|---------------------------------------------------------------------------|
A|---------------------------------------------------------------------------|
F|---------------------------------------------------------------------------|
C|--------7/9-9-9-9-9-9-9/127-7/9-9-9-9-9-9-9------------------------------|
G|--------5/7-7-7-7-7-7-7/105-5/7-7-7-7-7-7-7------------------------------|
C|---------------------------------------------------------------------------|

1:59
D|---------------------------------------------------------------------------|
A|---------------------------------------------------------------------------|
F|---------------------------------------------------------------------------|
C|-7-9-9-x-x-7-9-9-10-7-7-9-9-x-x-7-9-9-10-7-7-9-9-x-x-7-9-9-10-7-7-9-9-x-x--|
G|-7-9-9-x-x-7-9-9-10-7-7-9-9-x-x-7-9-9-10-7-7-9-9-x-x-7-9-9-10-7-7-9-9-x-x--|
C|-7-9-9-x-x-7-9-9-10-7-7-9-9-x-x-7-9-9-10-7-7-9-9-x-x-7-9-9-10-7-7-9-9-x-x--|

D|---------------------------------------------------------------------------|
A|---------------------------------------------------------------------------|
F|---------------------------------------------------------------------------|
C|-7-9-9-10-7---------------------------------------------------------------|
G|-7-9-9-10-7---------------------------------------------------------------|
C|-7-9-9-10-7---------------------------------------------------------------|

2:36
D|---------------------------------------------------------------------------|
A|---------------------------------------------------------------------------|
F|---------------------------------------------------------------------------|
C|--7/9-97/9-97/9-9/127-7/9-97/9-97/9-9/12-----------------------------|
G|--5/7-75/7-75/7-7/105-5/7-75/7-75/7-7/10-----------------------------|
C|---------------------------------------------------------------------------|

D|---------------------------------------------------------------------------|
A|---------------------------------------------------------------------------|
F|---------------------------------------------------------------------------|
C|--7-7/9-97/9-97/9-9/127-7/9-97/9-97/9-9/12---------------------------|
G|--5-5/7-75/7-75/7-7/105-5/7-75/7-75/7-7/10---------------------------|
C|---------------------------------------------------------------------------|

D|---------------------------------------------------------------------------|
A|---------------------------------------------------------------------------|
F|---------------------------------------------------------------------------|
C|--5-54-7-7/9-97/9-97/9-9/127-7/9-97/9-97/9-9/12---------------------|
G|--3-32-5-5/7-75/7-75/7-7/105-5/7-75/7-75/7-7/10---------------------|
C|---------------------------------------------------------------------------|

D|---------------------------------------------------------------------------|
A|---------------------------------------------------------------------------|
F|---------------------------------------------------------------------------|
C|--7-7/9-97/9-97/9-9/127-7/9-97/9-97/9-9/12---------------------------|
G|--5-5/7-75/7-75/7-7/105-5/7-75/7-75/7-7/10---------------------------|
C|---------------------------------------------------------------------------|

D|---------------------------------------------------------------------------|
A|---------------------------------------------------------------------------|
F|---------------------------------------------------------------------------|
C|--5-54/7------------------------------------------------------------------|
G|--3-32/5------------------------------------------------------------------|
C|---------------------------------------------------------------------------|

3:13
D|---------------------------------------------------------------------------|
A|---------------------------------------------------------------------------|
F|---------------------------------------------------------------------------|
C|--7/9-97/9-97/9-9/127-7/9-97/9-97/9-9/12-----------------------------|
G|--5/7-75/7-75/7-7/105-5/7-75/7-75/7-7/10-----------------------------|
C|---------------------------------------------------------------------------|

D|---------------------------------------------------------------------------|
A|---------------------------------------------------------------------------|
F|---------------------------------------------------------------------------|
C|--7-7/9-97/9-97/9-9/127-7/9-97/9-97/9-9/12---------------------------|
G|--5-5/7-75/7-75/7-7/105-5/7-75/7-75/7-7/10---------------------------|
C|---------------------------------------------------------------------------|

3:23
D|---------------------------------------------------------------------------|
A|---------------------------------------------------------------------------|
F|---------------------------------------------------------------------------|
C|--7/9-97/9-9---(Repeat This Pattern Until End Of The Song)---------------|
G|--5/7-75/7-7-------------------------------------------------------------|
C|---------------------------------------------------------------------------|
comments powered by Disqus
Наверх