Аккорды Gorky Park - Ocean

Добавлено: @romashka
Дата добавления: 06 Мая 2021г.
Рейтинг:
0.0
Просмотров: 132
Транспонировать - +
Intro:
 e-8---7----------------0------------8-7-------------0-----------------|
 H---5---5-----0-1--3-----3--------0-----5-----0-1-3---3-------0-------|
 G-----------2--------2---------1------------2-------------------1-----|
 D-7-------3--------0----------------7-----3-------0---------4---------|
 A----------------------------2----------------------------2-----------|
 E--------------------------0----------------------------0-------------|


Verse 1:
  Am                              С
 e---------------------------------------------------------------------|
 H---------1---------------1--------------1-------------1--------------|
 G-----2-------2-------2-------2------0-------0-----0-------0----------|
 D---2---2---2-------2---2---2------2---2---2-----2---2---2------------|
 A-0------------------------------3------------------------------------|
 E----------------0-----------------------------0----------------------|

  F                               C             G
 e---------------------------------------------------------------------|
 H---------1---------------1--------------1-------------0--------------|
 G-----2-------3-------2-------3------0-------0-----0-------0----------|
 D---3---3---3-------3---3---3------2---2---2-----0---0---0------------|
 A-3------------------------------3------------------------------------|
 E----------------1-----------------------------3----------------------|

Verse 1

Am
Take me back to see the ocean
C
Bearing sound of waves devotion
F
Wash away the words corrosion
C             G
That we left behind

Am
Clean me up with wind and water
C
I'm your son and you're my daughter
F
I won't let this moment be slaughtered
C             G
In my burning mind

Chorus
                Dm              G
   And when I'm lost inside the walls
                Em              F
   I'd live this moment more and more
 C    D             F G
   So blind I can't help it
 Dm              G
   Lost inside the walls
              Em              F
   I need this moment more and more
 C    D             F G
   So blind I can't help it


Verse 2
Am
Searching ways for understanding
C
I would lose my boat stranded
F
Now I know I was defending
C           G
Castle on a sand

Am
Take me back to see the ocean
C
City's draining my emotions
F
Let me have a healing potion
C                G
Sipping off your hands


Chorus
                Dm              G
   And when I'm lost inside the walls
                Em              F
   I'd live this moment more and more
 C    D             F G
   So blind I can't help it
 Dm              G
   Lost inside the walls
              Em              F
   I need this moment more and more
 C    D             F G
   So blind I can't help it

Am Em Am C G Dm G Dm Em

Chorus
                Dm              G
   And when I'm lost inside the walls
                Em              F
   I'd live this moment more and more
 C    D             F G
   So blind I can't help it
 Dm              G
   Lost inside the walls
              Em              F
   I need this moment more and more
 C    D             F G
   So blind I can't help it

Outro
 e-8---7----------------0------------8-7-------------0-----------------|
 H---5---5-----0-1--3-----3--------0-----5-----0-1-3---3-------0-------|
 G-----------2--------2---------1------------2-------------------1-----|
 D-7-------3--------0----------------7-----3-------0---------4---------|
 A----------------------------2----------------------------2-----------|
 E--------------------------0----------------------------0-------------|


Первый куплет - простой перебор: 5(6)-4-3-4-2-4-3
После первого куплета - лучше легким боем, подстраиваясь под ритм композиции.
Наверх