Аккорды Григорий Лепс - Рюмка водки на столе

Добавлено: @romashka
Дата добавления: 27 Января 2022г.
Рейтинг:
0.0
Просмотров: 45
Транспонировать - +
[Вступление]:

    E                                
E|-----|---------2---------4---------5--|
B|-----|--------------------------------|
G|--1--|--1 ͡ 2-----2 ͡ 4-----4 ͡ 5-----|
D|--2--|--------------------------------|
A|--2--|--------------------------------|
E|--0--|--------------------------------|

               C#m
E|--------------4--|------------------------|
B|--------------5--|------------------------|
G|--------------6--|------------------------|
D|--6-6-7-6-4---6--|--4-6-7-6-4-2-6----6-4--|
A|------------6-4--|------7------------6----|
E|--------------4--|------------------------|


C#m A(V) E Ab C#m A(V) E B E



          B        C#m
  Ночь по улицам пошла 
A(V)        E         F#m
  Звездной поступью цариц.
B                    A
  Слов и чисел простота
                 E                    B
  У небесного моста раскидала перья птиц.
E       B        C#m
  Не забудутся никем
A(V)        E         F#m
  Праздник губ, обиды глаз.
B                      A
  Забери меня в свой плен
               E                        B
  Эту линию колен целовать в последний раз.



[Припев]:

C#m   A(V) E
Только 
      Ab         C#m
Рюмка водки на столе, 
      A(V)         E
Ветер плачет за окном,
Ab   C#m   A(V)  E
Тихо болью
    Ab        C#m
Отзываются во мне
     A(V)      E   Ab     A(V) ...  A(V) Asus(V)
Этой молодой луны крики.


E|------------------|
B|------------------|
G|------------------|
D|-----7---5 ͡ 6----|
A|---7---7-------7--|
E|---------------7--|




       B         C#m
  Нелегко тебя отдать
A(V)   E           F#m
  Парусам ветров и птиц.
B                  A
  Может даже не понять,
                   E                        B
  Может даже не узнать среди тысяч женских лиц.
E          B         C#m
  Пусть глаза мои молчат,
A(V)     E           F#m
  Молча смотрят на луну.
B                      A
  Если кто поймает взгляд - 
                 E                    B
  Поторопится назад. Сам не знаю, почему.



[Припев]:

C#m   A(V) E
Только 
      Ab         C#m
Рюмка водки на столе, 
      A(V)         E
Ветер плачет за окном,
Ab   C#m   A(V)  E
Тихо болью
    Ab        C#m
Отзываются во мне
     A(V)      E   Ab
Этой молодой луны крики.


C#m A(V) E Ab C#m A(V) E Ab


      C#m   A(V)  E
   ...болью
    Ab        C#m
Отзываются во мне
     A(V)      E   Ab     A(V) ...  A(V)
Этой молодой луны крики.


                       E  E  Ab               
E|------------------|--------4--|
B|------------------|--------4--|
G|------------------|--------5--|
D|-----7---5 ͡ 6----|--------6--|
A|---7---7-------7--|--7--7--6--|
E|---------------7--|--7--7--4--|


E|--------------4--|------------------------------|
B|--------------5--|------------------------------|
G|--------------6--|------------------------------|
D|--6-6-7-6-4---6--|--4-6-7-6-4-2-6----6-4-4 ͡ 2--|
A|------------6-4--|------------------------------|
E|--------------4--|------------------------------|


E|------------------|
B|------------------|
G|------------------|
D|-----7---5 ͡ 6----|
A|---7---7-------7--|
E|---------------7--| 
Наверх