Аккорды «HIM»

HIM
HIM - финская метал-группа, созданная в 1991 году вокалистом Вилле Вало, гитаристом Микко Линдстрёмом и басистом Микко Паананеном. Первоначальное название коллектива было His Infernal Majesty, но впоследствии его заменили аббревиатурой H.I.M. Некоторое непродолжительное время во время гастролей по США и Германии группа использовала названия HER и HIM and HER. Большинство песен исполняется на английском языке. HIM - одна из самых успешных групп Финляндии, их альбомы проданы тиражом более 5 миллионов… Читать полностью... HIM - финская метал-группа, созданная в 1991 году вокалистом Вилле Вало, гитаристом Микко Линдстрёмом и басистом Микко Паананеном. Первоначальное название коллектива было His Infernal Majesty, но впоследствии его заменили аббревиатурой H.I.M. Некоторое непродолжительное время во время гастролей по США и Германии группа использовала названия HER и HIM and HER. Большинство песен исполняется на английском языке. HIM - одна из самых успешных групп Финляндии, их альбомы проданы тиражом более 5 миллионов экземпляров. Пять их альбомов стали платиновыми в Финляндии, один в Германии и один в США. Группа была номинирована на премию Грэмми. Группа HIM (ранее - His Infernal Majesty) была основана в 1991 году в Хельсинки вокалистом Вилле Вало (Ville Valo), гитаристом Микко Линдстрёмом (Mikko Lindström) и басистом Микко Пааненом (Mikko Paananen). Изначально ансамбль исполнял кавер-версии песен Black Sabbath и Kiss, любимых групп Вало. По поводу названия группы ведутся громкие споры. Есть предположение, что название HIM произошло от одноимённого журнала эротического содержания. Так же существует версия, что название произошло от магазина одежды для трансвеститов, который назывался HIM. Самая распостраненная версия: HIM является аббревиатурой от «His Infernal Majesty». В первые годы в группе произошли изменения состава на время военной службы её участников, но трое основателей остаются в ней по сей день. В 90-х Вало начал сочинять собственный материал для группы. Записей первого демо-диска Witches and Other Night Fears (1992) не сохранилось (единственная его копия находится в частной коллекции Вилле Вало). Первым достоверно известным релизом группы был самиздатный мини-альбом This is Only the Beginning, вышедший в 1995 году. На этом диске у группы не было ударника, Вало записывал партии ударных сам. Группа отослала демо на лэйбл bmg и получила контракт на альбом. В 1996 году был издан мини-альбом 666 Ways to Love: Prologue (в настоящее время - филофоническая редкость: выпущен тиражом 1000 экз.), а затем, в 1997 - дебютный альбом Greatest Love Songs Vol. 666. Во все три альбома, в частности, вошла кавер-версия песни Криса Айзека Wicked Game, исполненная группой в рок-обработке. Эта песня и снятый на неё видеоклип принесли группе широкую известность. С самого начала группа избрала стиль мелодичного рока с текстами о любви и смерти. В имидже заигрывала с тематикой готов, добившись в их среде некоторой популярности, несмотря на жанровые отличия, хотя отношение к ней остаётся неоднозначным. Название группы вкупе с вызывающим имиджем Вало шокировали публику, и по совету продюсеров, начиная со второго альбома группа использовала аббревиатуру H.I.M. вместо полного названия. Сейчас музыканты заявляют, что название His Infernal Majesty больше не имеет отношения к ним. Второй альбом, Razorblade Romance, вышел в 1999 году и попал на первое место в германских чартах. До него же добрался сингл на песню Join Me In Death, на которую было снято два видеоклипа. Razorblade Romance был также выпущен в США, но у H.I.M. возникли трудности с его распространением, так как в Америке оказалась одноимённая группа HiM. Из-за этого некоторое время этот альбом США издавался под заголовком HER. Позднее права на название были выкуплены при посредничестве друга группы, режиссёра и известного скейтера Бэма Марджеры. В 2001 году был выпущен Deep Shadows And Brilliant Highlights, более поп-ориентированный, однако менее успешный. Параллельно гитарист Микко Линдстрём основал сайд-проект Daniel Lioneye, в котором приняли участие все участники HIM. При этом вокальные партии исполнялись самим Линде, а Вало исполнял обязанности ударника. Самым известным и популярным альбомом HIM стал вышедший в 2003 году Love Metal. Названием альбома стал самопровозглашённый стиль группы, который они характеризуют как «любовный металл». Альбом успешно продавался не только в Европе, но и в Америке. Синглами вышли песни The Funeral Of Hearts, Buried Alive By Love, The Sacrament, видеоклипы на эти песни, снятые Бэмом Марджерой, транслировались по MTV и успешно участвовали в его хит-парадах. HIM стали частью массовой культуры, несколько раз появились на шоу их друга Бэма Марджеры «Viva la Bam» на MTV. В 2004 году группа была одним из хэдлайнеров фестиваля Download в Донингтоне. В том же году был выпущен сборник хитов группы And Love Said No. Альбом представлял собой сборник лучших песен с 1997 года, но, однако, включал в себя 2 новые композиции: песню And Love Said No и кавер-версию песни Нила Даймонда Solitary Man. Режиссером клипов на оба трека опять же выступил Бэм Марджера. В 2005 HIM записали альбом Dark Light, впервые для группы попавший в чарты Billboard. Синглами вышли песни Wings of a Butterfly , Vampire Heart , Killing Loneliness . Альбом Venus Doom вышел в сентябре 2007 года и попал на двенадцатую строчку Billboard в США. Venus Doom был несколько тяжелее предыдущих работ HIM. Альбом даже номинировался на премию Грэмми, но проиграл. Композиции The Kiss Of Dawn и Bleed Well были выпущены как синглы. Сингл Passion’s Killing Floor стал саундтреком к фильму «Трансформеры». В апреле 2008 года был выпущен первый концертный альбом группы (CD + DVD) - Digital Versatile Doom - Live At The Orpheum Theatre XXXVII A.S. (Digital Versatile Doom: Live at the Orpheum Theatre XXXVII A.S.). Концерт, состоявшийся 14 и 15 ноября 2007 года, снял Мейерт Авис. В феврале 2010 года вышел седьмой студийный альбом HIM под названием Screamworks: Love In Theory And Practice. В преддверии выхода альбома в декабре 2009 года вышел сингл Heartkiller. В марте 2010 года был выпущен второй сингл - Scared To Death. На обе эти композиции были сняты одноименные видеоклипы. В марте 2011 года после шести лет совместной работы и, как результат, выпуска трех альбомов, HIM и звукозаписывающая компания Sire/Warner Bros. приняли решение завершить свое сотрудничество. В октябре 2012 года группа выпустила альбом-компиляцию XX - Two Decades Of Love Metal, посвященный 20-летию с момента начала творческой деятельности коллектива. Релиз выпущен звукозаписывающей компанией SONY MUSIC. В состав сборника вошли лучшие хиты HIM за всю историю группы, а также новая песня - Strange World (кавер-версия песни исполнителя Ké). На композицию Strange World в августе 2012 года на студии Finnvox в Хельсинки был снят одноименный видеоклип. Режиссер клипа - Eugene Riecansky. В настоящее время группа по-прежнему ведет поиск новой рекорд-компании и записывает материал для своего восьмого студийного альбома под рабочим названием "Tears On Tape", выход которого запланирован на март 2013 года. Состав группы: Вилле "Rakohammas" Вало - вокал (с 1991) Микко "Linde" Линдстрём - гитара (с 1991) Микко "Migé" Паанен - бас-гитара (с 1991) Мика "Gas Lipstick" Карппинен - ударные (с 1999) Янне "Emerson Burton" Пууртинен - клавишные (с 2001) Дискография HIM Демо- и мини-альбомы: 1992 г. - Witches and Other Night Fears; 1995 г. - This Is Only the Beginning; 16 октября 1996 г. - 666 Ways to Love: Prologue. Студийные альбомы: 20 ноября 1997 г. - Greatest Lovesongs Vol. 666; 19 декабря 1999 г. - Razorblade Romance; 27 августа 2001 г. - Deep Shadows And Brilliant Highlights; 14 апреля 2003 г. - Love Metal; 26 сентября 2005 г. - Dark Light; 14 сентября 2007 г. - Venus Doom; 8 февраля 2010 г. - Screamworks: Love In Theory And Practice, Chapters 1-13; Альбомы-компиляции, сборники: 7 октября 2002 г. - The Single Collection (бокс-сет из 10 дисков); 15 марта 2004 г. - And Love Said No: The Greatest Hits 1997–2004; 27 сентября 2004 г. - Greatest Love Songs Vol. 666/Razorblade Romance/Deep Shadows and Brilliant Highlights (бокс-сет из 3 дисков); 27 октября 2006 г. - Uneasy Listening Vol. 1; 20 апреля 2007 г. - Uneasy Listening Vol. 2; 9 ноября 2007 г. - Uneasy Listening Vol. 1 & 2; 7 декабря 2010 г. - SWRMXS. Видеоклипы: 1996 - "Wicked Game" (version 1) [Режиссер Антто Меласниеми]; 1998 - "Wicked Game" (version 2) [Режиссер Маркус Уолтер]; 1999 - "When Love and Death Embrace" [Режиссер Микко Питканен]; 1999 - "Join Me in Death" (version 1) [Режиссер Роберт Вильде]; 2000 - "Right Here in My Arms" [Режиссер Паси Пауни]; 2000 - "Poison Girl" [Режиссер --]; 2000 - "Gone With the Sin" [Режиссер Эрсин Филизли]; 2000 - "Join Me in Death" (version 2) [Режиссер Джон Хиллкоут]; 2000 - "Wicked Game" (version 3) [Режиссер Билл Юкич]; 2001 - "Pretending" [Режиссер Кевин Годли]; 2001 - "In Joy and Sorrow" [Режиссер Джон Хиллкоут]; 2001 - "Heartache Every Moment" [Режиссер --]; 2002 - "Close to the Flame" [Режиссер --]; 2003 - "The Funeral of Hearts" [Режиссер Стефан Линдфорс]; 2003 - "Buried Alive By Love" [Режиссер Бэм Марджера]; 2004 - "The Sacrament" [Режиссер Бэм Марджера]; 2004 - "Solitary Man" [Режиссер Бэм Марджера]; 2004 - "And Love Said No" [Режиссер Бэм Марджера]; 2005 - "Wings of a Butterfly" [Режиссер Мейерт Авис]; 2005 - "Killing Loneliness" (version 1) [Режиссер Нобл Джонс]; 2006 - "Killing Loneliness" (version 2) [Режиссер Натан Кокс]; 2007 - "The Kiss of Dawn" [Режиссер Мейерт Авис]; 2007 - "Bleed Well" [Режиссер Мейерт Авис]; 2010 - "Heartkiller"; 2010 - "Scared to Death"; 2012 - "Strange World" [Режиссер Eugene Riecansky]. Ссылки на полезные ресурсы о HIM: Официальный сайт группы: www.heartagram.com Русский портал, посвященный творчеству HIM: http://heartagram.ru Американский портал, посвященный творчеству HIM: http://funeralofhearts.com Информация о релизах группы на CD и DVD [1]: www.saintscream.ru Информация о релизах группы на CD и DVD [2]: http://www.h-i-m666.com/heartless666/himcddb/ Скрыть...
Популярные аккорды HIM:
алфавиту | просмотрам | случайно
  • Вступление: E | Em6
    
    Em           D            G         
    She was the sun shining upon        
         Am           Em   D          Em    Em6
    The tomb of your hopes and dreams so frail
    Em           D            G
    He…
  • E------------14-16--------11-12------6-7-------
    B----------------------------------------------
    G---------16-----------13----------8-----------  ...
    D------14-----------11-----------6-------------
    A----------------------------------------------
    E----------------------------------------------
    
    
    E------------14-16--------16-18--------
    B--------------------------------------
    G---------16-----------18--------------
    D------14-----------16-----------------
    A--------------------------------------
    E--------------------------------------
    
    
    
    CHORDS:
    =======…
  • Am     G     Dm   Em
      The kiss sweetest
    Am     G       Dm  Em
      And touch so warm
    Am      G    Dm   Em
      The smile kindest
    Am         G       Dm          E
      In this world so cold and strong
    
    Chorus:
    
    
       Hm…
  • (standard tuning EADG; common time 4/4)
    
    - very easy -
    
    
    |----|----|
    |----|----|
    |----|----|
    |-1~-|~~--|
    
    Chorus
    |----------|----------|----------|----------|
    |----------|----------|----------|----------|
    |----------|----------|----------|-3333-----|…
  • E--------------------------------------------------------------0---------------------------------------------I
    B-------------------------3---------------------------------------3--------0----------------------1----------I
    G----------------0------------0--------0-------------0---------------0------------------2------------2-------I
    D-----------2--------2------------2-------------0-------0---------------------------2------2------------2----I
    A-----3--------------------------------------------------------------------------0---------------------------I
    E--------------------------------------------3---------------------------------------------------------------I
    
    
    E-----------------------------------------I
    B--------0----------------1---------------I
    G---2-------2---------2------2------------I…
  • Tuning: Standard
    
    Intro:
    1|-------------------|-------|
    2|-------------------|-------|
    3|----3---6--3-------|--3----|
    4|-3--1---6--1----3--|--3----|
    5|-3--1---4--1----3--|--1----|
    6|-1--------------1--|-------|
      F5 Eb5…
  • E |------------------------------------------------------
    H |-------------------0---------------------3---------1--
    G |---------0-----2-----2---0-----------------0---------2
    D |-----2-----2-----2-----2---2---------0-------0---2----
    A…
  • Вступление:
    1---------------5-------|--3-------------------------------|
    2|--5-------5-------5-----------5---|------0-------0-------0-------0---|
    3|------5-------5-------5-----5---5-|----0---0---0---0---0---0---0---0-|
    4|----7---7---7---7---7---7---------|----------2-------2-------2-------|…
  • Begins with the Chorus: 
    
    D|----------------|----------------|----------------|----------------|
    A|----------------|2-2-2-2-2-2-2-2-|3-3-3-3-3-3-3-3-|----------------|
    E|0-0-0-0-0-0-0-0-|----------------|----------------|3-3-3-3-2-2-2-2-|…
  • intro
    e---------------------------0--------------------------------
    b------2---------4---------0-0--------4-------2-------4------
    g-------2---------4--------------------4----2--2-------4-----
    d----2---2-----4---4-----6-----------4--4--2-2--2----4--4-4/6
    a0-----------2--------/4--------4-2-------0-------2-------2/4
    e------------------------------------------------------------
    
    cont.
    e------------------------------------------------------
    b------------------------------------------------------
    g------------------------------------------------------
    d--2--2/4----2---2/4---4-2---------------------------9/
    a4--4------4---4----------4-2--0h2p0--/5---/77777777-7/
    e------------------------------------------------------
    
    e---------------------------0-----------------------------
    b------2---------4---------0-0--------4-------2-------4---
    g-------2---------4--------------------4----2--2-------4--
    d----2---2-----4---4-----6-----------4--4--2-2--2----4--4-
    a0---------2----------/4--------4-2-------0-------2-------
    e---------------------------------------------------------
    
    cont.
    e-----0----0----
    b----0-0-4--0-4-
    g---------4----4
    d--6------------
    a4--------------
    e---------------
    
    e---------------------------0--------------------------------
    b------2---------4---------0-0--------4-------2-------4------
    g-------2---------4--------------------4----2--2-------4-----
    d----2---2-----4---4-----6-----------4--4--2-2--2----4--4-4/6
    a0---------2----------/4--------4-2-------0-------2-------2/4
    e------------------------------------------------------------
    
    e------------------------------------------------------
    b------------------------------------------------------
    g------------------------------------------------------
    d------------------------------------------------------
    a--2--2/4----2---2/4---4-2---------------------------9/
    e4--4------4---4----------4-2--0h2p0--/5---/77777777-7/
    
    e---------------------------0-----------------------------
    b------2---------4---------0-0--------4-------2-------4---
    g-------2---------4--------------------4----2--2-------4--
    d----2---2-----4---4-----6-----------4--4--2-2--2----4--4-
    a0---------2----------/4--------4-2-------0-------2-------
    e---------------------------------------------------------
    
    cont.
    e-----0----0----
    b----0-0-4--0-4-
    g---------4----4
    d--6------------
    a4--------------
    e---------------
    
    e---------------------------0-----------------------------
    b------2---------4---------0-0--------4-------2-------4---
    g-------2---------4--------------------4----2--2-------4--
    d----2---2-----4---4-----6-----------4--4--2-2--2----4--4-
    a0---------2----------/4--------4-2-------0-------2-------
    e---------------------------------------------------------
    
    cont.
    e-----0----0----
    b----0-0-4--0-4-
    g---------4----4
    d--6------------
    a4--------------
    e---------------
    
    here's…
  • intro (clean guitar)
    e-----------------------------------------------------
    b-----------------------------------------------------
    g-----------------------------------------------------
    d--6/7----6--6--64-----------------------------------
    a--7/9----7--7--75---4-b-2---------------------------
    e-----------------------------------------------------…
  • Hm                    A
    memories sharp as daggers
    G                         A
    peirce into the flesh of today
    Hm                                     A
    suicide of love threw away all that matters
        G…
  • Info:	  Slide down
    	 / Slide Up
    	 ~ Vibrato
    	 b Bend
    	 r Relase
    Standard tuning
    
    			      INTRO KEYBOARD
                               B5                  G5       F#5       
    E||--------------------|-------------------|--------------------|
    B||--------------------|-------------------|--------------------|
    G||--------------------|-------------------|--------------------|
    D||--------------------|--4~---------------|--------------------|
    A||-----------5-4--0--|--2~---------------|--5--------4--------|
    E||--------------------|-------------------|--3--------2--------|…
  • intro/solo
    
    e:0-3-3-0-3-3-0-3-3-0-3-3-5-7-7-5-7-7       
    a:--------------------------------------------
    d: -------------------------------------------       x2
    g:--------------------------------------------
    
    
    verse
    
    e:0-0-0-0-0-0-0-0-0-0-0-0-0-0-0-0----------------------2-2-2-2-2-2-2-2-0-0-0-0-0-0-0-0-0-0-0-0-0-0-
    a:-----------------------------------------5-5-5-5-5-5-5-5-----------------------------------------
    d:-------------------------------------------------------------------------------------------------
    g:-------------------------------------------------------------------------------------------------
    
    
    u…
  • Only SINTH ----> 
         
    E||--------|-------|-------|-------|-------|------|------|-------|
    B||--------|-------|-------|-------|-------|------|------|-------|
    G||--------|-------|-------|-------|-------|------|------|-------|
    D||--------|-------|-------|-------|-------|------|------|-------|
    A||--------|-------|-------|-------|-------|------|------|-------|
    E||--------|-------|-------|-------|-------|------|------|-------|…
  • Info:       ->  Slide down
            r    ->  Released   
    	  b	 ->  Bending
    	  br	 ->  Bend & Release
    	  ~	 ->  Vibrato
    	  -	 ->  Muted…
  • Intro: F C G
    You can play this part picking every note at a time, for example:
      F           F         C        G              Dm                      G
    e-----------------------------------------¦-----------------------------3-3-|
    B-----------------------------------------¦-----------6-----------6-----3-3-|
    G-------2-----------2---------------------¦---------7---7-------7---7---4-4-|
    D-----3---3-------3---3-------------------¦-x3----7-------7---7-------7-5-5-|
    A---3-------3---3-------3-3-3-2-0---------¦-----5-----------5-----------5-5-|
    E-1-----------1-------------------3-3-2-0-¦-----------------------------3-3-|
    
    (You…
  • Куплет:
    
    |----------||----------||----------|
    |----------||----------||----------|
    |----------||----------||----------|
    |----------||----------||----------|...
    |0-0-3-0---||0-0-3-0---||-----2----|
    |-----2----||-----2----||3--3---3--|
    
    Припев:
  • Info:       ->  Slide down
            r    ->  Released   
    	  b	 ->  Bending
    	  br	 ->  Bend & Release
    	  ~	 ->  Vibrato
    	  -	 ->  Muted
    
         
         Verse1 (after 4 times)   6x                          
    E||----------------------------||--------------------------|
    B||----------------------------||--------------------------|
    G||*--------------------------*||--4--4--4--4--4--4--4--4--|
    D||*--6--6--6--6--6--6--6--6--*||--4--4--4--4--4--4--4--4--|
    A||---6--6--6--6--6--6--6--6---||--2--2--2--2--2--2--2--2--|
    E||---4--4--4--4--4--4--4--4---||--------------------------|…
  • kitara:
    F#m
       I did it all just for her, I did it all just for her
        Bm                                 D        A Bm 
    And love´s heart is death for me and my  poison girl
    
    F#m, Bm, D, A, Bm, F#m
    
    basso: 
    Main Riff-
    G---------------------|
    D---------------------|…
  • Intro
    
    e|--------------------------------------------| 
    b|--------------------------------------------|  
    g|--------------------------------------------| x3  
    d|--------------------------------------------|  
    a|--------------------------------------------|…
  • Main Riff
      [Gm]     [F]                 Fill Riff
    e-|---------------|        e-|-------------|
    h-|---------------|        h-|-------------|
    g-|---------------|        g-|-------------|
    D-|---------------|        D-|------0--1~--|
    A-|---------------|…
  • Вступление: Em Em 
                Am C G D 
                Am C Em Em
    
    1. Em
         Just one look into your eyes
       Em                   C
         One look - and I´m crying
       C              G     D
         Cause you so beautiful…
  • RIFFI
    
    |--------------------|
    |--------------------|
    |--------------------|
    |--------------------| * 3
    |--------------------|
    |-8-6-6-8-6-6-3h5-3~-|
    
    |--------------------|
    |--------------------|
    |--------------------|
    |-------------5h7-5~-|
    |--------------------|
    |-8-6-6-8-6-6--------|
    
    
    RIFFI
    
    |---------------------------|
    |---------------------------|
    |---------------------------|
    |-5-5-5-5-5-5-5-5-5-5-5-5-5-|
    In…
  • Intro:
    Em, G, D, C
    Verse:
    Em                 G
       We´re drifting apart
    D            C
      But I want you to know
    Em              G       D
       Wherever you are I belong
    Em                    G
       Love´s singing…
  • Intro1 (3°giro)
      PIANO                                                 5x
    |---------------------------|---------------------------|
    |---------------------------|---------------------------|
    |*--9--9--9--9--7--7--7--7--|--5--5--5--5--7--7--7--7--*|
    |*--9--9--9--9--7--7--7--7--|--5--5--5--5--7--7--7--7--*|
    |---7--7--7--7--5--5--5--5--|--3--3--3--3--5--5--5--5---|
    |---------------------------|---------------------------|…
  • Intro: (2x)
    basso:
    Gl----------l-------------l----------l----------l
    Dl----------l-------------l----------l----------l
    Al----------l-3333--------l----------l----------l
    El-55555555-l--------3333-l-00000000-l-00000000-l
    kitara:…
  • Intro:
    e|---------------------------------------------------------------------------|
    B|---------------------------------------------------------------------------|
    G|---------------------------------------------------------------------------|
    D|---------------------------------------------------------------------------|
    A|--------2--------2--------2-------2----------------------------------------|
    E|--0-2-3----0-2-3----0-2-3---0-2-3------------------------------------------|
    
    
    chorus:
    e|---------------------------------------------------------------------------|
    B|---------------------------------------------------------------------------|
    G|-----5-4-2-4-4-------------------------------------------------------------|
    D|---------------5-/7-5-4-5-5-5-/7-4-2-0-2-----------------------------------|
    A|---------------------------------------------------------------------------|
    E|---------------------------------------------------------------------------|
    
    e|---------------------------------------------------------------------------|
    B|-----6-5-3-5-5-------------------------------------------------------------|
    G|---------------5-/7-5-4-5-5-5-/7-4-2-0-2-----------------------------------|
    D|---------------------------------------------------------------------------|
    A|---------------------------------------------------------------------------|
    E|---------------------------------------------------------------------------|…
  • Intro: Am, C, E, Am
    
    Verse:
           Am              C
    Kun mä sinut kohtasin oli ilta ihanin linnut 
              E
    lauloi ja kimmelsi taivaan kuu 
         Am                      C
    Sinä sanoit menkäämme maalle…
  • Verse 1:
    Abm
    Here we are
    In the maelstrom of love
            E
    Waiting for the calm
    To soothe our hearts
    
    Abm
    Here we are
    And don't know how to stop
            E
    Waiting for the war
    To end it all
    
    Chorus:
    F#        Abm
    Love is…
  • Все аккорды за исключением ре-мажор (D) играются на барре.
    
    Hm           A
    There was a time
                   G               Hm
    When I could breath my life in you
    Hm      A
    One by one
               G                Hm
    Your pale…
  • Intro: Em D G Am
    Verse:
    Em       D     
        No I won´t surrender 
    G            Am
        At any cost 
    Em                              D
        You´re something so sweet and tender 
    G               Am
        From my heart…
  • h  ------------------------------------------------------|
    f# ------------------------------------------------------|
    d  ------------------------------------------------------|
    A  |-0-3-0-0-3-0-0-3-0-3-0-0-3-0-3-3-0-2-0-0-2-0-0-2-0-2-0-0-2-0-2-2-|
    E…
  • Intro: Fm | Eb | Fm | Eb  } 3 раза
    
    Fm
    Farewell heartless world,
                           Eb
    I'll send you postcard burnt
           Db                      Ab
    In the flames, you've tried so hard
                       Eb…
  • E||---------------------------||---------------------------||
    B||---------------------------||---------------------------||
    G||*--6~---8--8--8--8--------*||*-------------------------*||
    D||*-------------------6--8--*||*-------------------------*||
    
    A||---------------------------||---4~---6--6--6--6---------||
    E||---------------------------||--------------------4--6---||…
  • Main Riff
    E|--------------------------------------------------------|
    B|--------------------------------------------------------|
    G|--------------------------------------------------------|
    D|--------------------------------------------------------|
    A|-2-2-2-2-2-2--------------------------------------------|
    E|-3-0-0-0-0-0--------------------------------------------|
    
    Riff…
  • Our love was once so sweet
        C       A       G
    
    But now I can feel the heat
         D         F
    
     Of you and me
     C     D    F
    
    We are falling apart
       Fm       Dm
     
    Please don't this end with a broken heart
      C    D   D…
  • Info:       ->  Slide down
            r    ->  Released   
    	  b	 ->  Bending
    	  br	 ->  Bend & Release
    	  ~	 ->  Vibrato
    	  -	 ->  Muted
    
         
      KEYBOARD
    |------------------|----------------|------------------|------------|
    |------------------|----------------|------------------|------------|
    |------------------|----------------|------------------|------------|
    |------------------|----------------|------------------|------------|
    |------------------|----------------|------------------|------------|
    |------------------|----------------|------------------|------------|…
  • Intro(heavy dist.):
    e-|--------------------------------|
    h-|--------------------------------|
    g-|--------------------------------|  repeat 4x
    D-|--------------------------------|
    A-|--------------------------------|
    E-|-4~--2-4~--2-4-2-4~--2-4~-2-4---|
    
    Main…
  • Your pain ain't love
    
    Em Hm C
    Em Hm C
    Em Hm C
    G D
    
    Em                          D    C
    Can't you see he's the heartless
    Your pain is not love
    He's taking it too far
    Don't you know it is wrong
    You're the one for me lady
    You're…
  • -------------------------|
    |----0---1---0-----0--1--------------|
    |---2--2----2-2-0-2-2--0-2-0---------|
    |--2----2--2---2-2---2------2-0-2----|
    |-0------------------------------3-0-|
    ----------------------3--|   x3
    
    
    
    Am…
  • INTRO KEYBOARDS & DRUMS (8 TIMES)
        KEYBOARD
        F#                        A                       4x
    E||--------------------------|--------------------------||
    B||--------------------------|--------------------------||
    G||*-------------------------|-------------------------*||
    D||*--4----4--4--4--4--4--4--|--7----7--7--7--7--7--7--*||
    A||---4----4--4--4--4--4--4--|--7----7--7--7--7--7--7---||
    E||---2----2--2--2--2--2--2--|--5----5--5--5--5--5--5---||…
  • (distorted)
    e|------------------------------------------------------------------|
    b|------------------------------------------------------------------|
    g|------------------------------------------------------------------|
    d|------------------------------------------------------------------|
    a|----5/75~---5/75~--3/5--5-57/5-3-------------5/75~---42/4----|
    E|-5~~--------------------------------5~~-----5~~----------------3~-|
    
    e|------------------------------------------------------------------|
    b|------------------------------------------------------------------|
    g|------------------------------------------------------------------|
    d|------------------------------------------------------------------|
    a|----5/75~---5/75~--3/5--5-5/75-3------------5/75~---42/4-----|
    E|-5~~--------------------------------5~~---1/5~~---------------3~~-|…
  • B5 / A5 / E5
    (Bm / A / E )
    
    e------------------------------------------------- -----------------
    b---.-.-.-.-.-.-.---.-.-.-.-.-.-.----------------- -----------------
    g-4-4-4-4-4-4-4-4-2-2-2-2-2-2-2-2---.-.-.-.-----2- --1-.-.-.-.---.-.
    D-4-4-4-4-4-4-4-4-2-2-2-2-2-2-2-2-2-2-2-2-2-2/4---…
  • Intro: D5 G5 (Synth)
    
     Verse 1:
    G5                                  D5
    I know how it feels to be on your own
    G5
    In this cruel world where hearts
        D5
    are bound to turn to stone
                  Em
    Where you are alone…
  • INTRO:
    
    Guitar 1
    e-----------------------------------------------------------------------------
    b-----------------------------------------------------------------------------
    g---------8-9-9-----------8-9-6-8-9---------8-9-9-----------8-9-6-4-2---------
    D-2-2-2-2-8-9-9---2-2-2-2-8-9-6-8-9-2-2-2-2-8-9-9---2-2-2-2-8-9-6-4-2---------
    A-2-2-2-2-6/7-7---2-2-2-2-6/7-4-6-7-2-2-2-2-6/7-7---2-2-2-2-6/7-4-2-0---------
    E-0-0-0-0---------0-0-0-0-----------0-0-0-0---------0-0-0-0-------------------
    PM-------|…
  • intro
    normal tuning
    
    clean
    e---------------------------------------
    b8p0--5p0--7p0--3p0--3/5-8p0--5p0--7p0--
    g---0----0----0----0--------0----0----0-
    d---------------------------------------
    a---------------------------------------
    e---------------------------------------
    
    
    main…
  • Intro: 2x
     Dm   C   Am  Dm 
    l-f-a-g-e-f-e-d-l
    
    
    Verse:
    Dm             C
    Taksin katolla vilkkuu
        C            Dm
    Уцn ainoa valopilkku
          Dm             C
    Tuhto topattu mutteriveneen
    C          Dm       Dm, С, Am, Dm
    Odottaa…
  • Bm        A         Em           Bm
    Should've known how hard it's to stop
    Em           A     Bm  
    Tearing each other apart
    Bm  A      Em    Bm
    Separating souls entwined
    Em           A            Bm
    In all these labyrinthine…
Наверх