Аккорды Hollywood Undead - Usual Suspects

Добавлено: @romashka
Дата добавления: 08 Августа 2016г.
Рейтинг:
0.0
Просмотров: 543
Транспонировать - +
Tuning: Standart D (DGCFAd)

VERSES:

Rhythm & Lead Guitar:
e|------------------------------------------------------------------|
B|------------------------------------------------------------------|
G|------------------------------------------------------------------|
D|------------------------------------------------------------------|
A|--4--44444444442--4--44444444442--4--44447777772--4--444444444444-|
E|--2--22222222220--2--22222222220--2--22225555550--2--222222222222-|
       ..........      ..........      ..........      ............

CHORUS:

Rhythm & Lead Guitar:
e|------------------------------------------------------------------|
B|------------------------------------------------------------------|
G|----------------------------------7--7-77-9--9-99-----------------|
D|--4--4-44-4--4-44-7--7-77-7--7-77-7--7-77-9--9-99-4--4-44-4--4-44-|
A|--4--4-44-4--4-44-7--7-77-7--7-77-5--5-55-7--7-77-4--4-44-4--4-44-|
E|--2--2-22-2--2-22-5--5-55-5--5-55-----------------2--2-22-2--2-22-|

e|------------------------------------------------------------------|
B|------------------------------------------------------------------|
G|----------------------------------7--7-77-9--9-99-----------------|
D|--4--4-44-4--4-44-7--7-77-7--7-77-7--7-77-9--9-99-4--4-44-4--7-77-|
A|--4--4-44-4--4-44-7--7-77-7--7-77-5--5-55-7--7-77-4--4-44-4--7-77-|
E|--2--2-22-2--2-22-5--5-55-5--5-55-----------------2--2-22-2--5-55-|

BRIDGE:

Rhythm Guitar:
e|------------------------------------------------------------------|
B|------------------------------------------------------------------|
G|--7--7-77-7--7-77-9--9-99-9--9-99-----------------6--6-66-6--6-66-|
D|--7--7-77-7--7-77-9--9-99-9--9-99-4--4-44-4--4-44-6--6-66-6--6-66-|
A|--5--5-55-5--5-55-7--7-77-7--7-77-4--4-44-4--4-44-4--4-44-4--4-44-|
E|----------------------------------2--2-22-2--2-22-----------------|

e|--------------------------------------------------------------------------|
B|--------------------------------------------------------------------------|
G|--7--7-77-7--7-77-9--9-99-9--9-99-10--10-1010-10--10-1010-6--6-66-6--6-66-|
D|--7--7-77-7--7-77-9--9-99-9--9-99-11--11-1111-11--11-1111-6--6-66-6--6-66-|
A|--5--5-55-5--5-55-7--7-77-7--7-77--8---8--8-8--8---8--8-8-4--4-44-4--4-44-|
E|--------------------------------------------------------------------------|

Lead Guitar:
e|------------------------------------------------------------------|
B|------------------------------------------------------------------|
G|--11/13---16/14---13/14---19/18---16/18---14/16---13-13---13-13---|
D|------------------------------------------------------------------|
A|---9/11---14/12---11/12---17/16---14/16---12/14---11-11---11-11---|
E|------------------------------------------------------------------|

e|------------------------------------------------------------------|
B|------------------------------------------------------------------|
G|--13/14---16/14---13/14---19/18---16/18---18/22---22-22---18-18---|
D|------------------------------------------------------------------|
A|--11/12---14/12---11/12---17/16---14/16---16/20---20-20---16-16---|
E|------------------------------------------------------------------|
Наверх