Аккорды Hozier - Dinner & Diatribes

Добавлено: @romashka
Дата добавления: 30 Марта 2024г.
Рейтинг:
0.0
Просмотров: 24
Транспонировать - +
Capo on 1st fret

[Intro]
e|---------------------------------------------------------------------------|
B|---------------------------------------------------------------------------|
G|--------4-2-0h2---------0----0h2r0---------4-2-0h2---------0-2h4p2p0-------|
D|----0h2-------------0h2---0h2----------0h2-------------0h2-----------2p0---|
A|-0---------------0------------------0---------------0----------------------|
E|---------------------------------------------------------------------------|

e|-----------------------------------------------------------|
B|---------------------------|=====a=====|---|=====b=====|---|
G|-----------------------------------------------------------|
D|--------4-2-0h2---------0--------0h2p0------2h4p2p0--------|(x2)(1st time ends in a, then b)
A|----0h2-------------0h2-----0h2r0------------------2p0-----|
E|-0---------------0-----------------------------------------|

[Verse 1]
Honey, this club here is stuck up / Dinner and diatribes
e|------------------------------------------------------------|
B|----------------------------|=====a=====|---|=====b=====|---|
G|------------------------------------------------------------|
D|---------4-2-0h2---------0--------0h2p0------2h4p2p0--------|
A|-----0h2-------------0h2-----0h2p0------------------2p0-----|
E|-0----------------0-----------------------------------------|

I knew it from the first look of / The look of mischief in your eyes
e|---------------------------------------------------------------------------|
B|---------------------------------------------------------------------------|
G|--------4-2-0h2---------0----0h2p0---------4-2-0h2---------0-2h4p2p0-------|
D|----0h2-------------0h2---0h2----------0h2-------------0h2-----------2p0---|
A|-0---------------0------------------0---------------0----------------------|
E|---------------------------------------------------------------------------|

Your friends are a fate that befell me / Head is the talking type
e|-----------------------------------------------------------|
B|---------------------------|=====a=====|---|=====b=====|---|
G|-----------------------------------------------------------|
D|--------4-2-0h2---------0--------0h2p0------2h4p2p0--------|
A|----0h2-------------0h2-----0h2p0------------------2p0-----|
E|-0---------------0-----------------------------------------|

I'd suffer Hell if you’d tell me / What you'd do to me tonight
e|---------------------------------------------------------------------------|
B|---------------------------------------------------------------------------|
G|--------4-2-0h2---------0----0h2p0---------4-2-0h2---------0-2h4p2p0-------|
D|----0h2-------------0h2---0h2----------0h2-------------0h2-----------2p0---|
A|-0---------------0------------------0---------------0----------------------|
E|---------------------------------------------------------------------------|

[Pre-Chorus]
Tell me
e|---------|
B|---------|
G|---------|
D|--2-2-2--|
A|--2-2-2--|
E|--0-0-0--|

Tell me
e|---------|
B|---------|
G|---------|
D|--2-2-2--|
A|--2-2-2--|
E|--0-0-0--|

Tell me, ah
e|---------|
B|---------|
G|---------|
D|--2-2-2--|(x2)
A|--2-2-2--|
E|--0-0-0--|

[Chorus] (Guitar1)
That's the kind of love
e|---------------------------------------------------------------------------|
B|---------------------------------------------------------------------------|
G|--------4-2-0h2---------0----0h2p0---------4-2-0h2---------0-2h4p2p0-------|
D|----0h2-------------0h2---0h2----------0h2-------------0h2-----------2p0---|
A|-0---------------0------------------0---------------0----------------------|
E|---------------------------------------------------------------------------|

I’ve been dreaming of
e|-----------------------------------------------------------|
B|---------------------------|=====a=====|---|=====b=====|---|
G|-----------------------------------------------------------|
D|--------4-2-0h2---------0--------0h2p0------2h4p2p0--------|
A|----0h2-------------0h2-----0h2p0------------------2p0-----|
E|-0---------------0-----------------------------------------|

That's the kind of love
e|---------------------------------------------------------------------------|
B|---------------------------------------------------------------------------|
G|--------4-2-0h2---------0----0h2p0---------4-2-0h2---------0-2h4p2p0-------|
D|----0h2-------------0h2---0h2----------0h2-------------0h2-----------2p0---|
A|-0---------------0------------------0---------------0----------------------|
E|---------------------------------------------------------------------------|

I've been dreaming of
e|-----------------------------------------------------------|
B|---------------------------|=====a=====|---|=====b=====|---|
G|-----------------------------------------------------------|
D|--------4-2-0h2---------0--------0h2p0------2h4p2p0--------|
A|----0h2-------------0h2-----0h2p0------------------2p0-----|
E|-0---------------0-----------------------------------------|

[Chorus] (Guitar2)
PM--|
e|----------------------------|
B|----------------------------|
G|----------------------------|
D|--2p0-x-7-x-5-5-5-5-5-5-5---|(x16) 
A|----------------------------|
E|----------------------------|

[Verse 2]
Honey, I laugh when it sinks in / A pillar I am of pride
e|-------------------------------------------------------------|
B|----------------------------|=====a=====|----|=====b=====|---|
G|-------------------------------------------------------------|
D|--------4-2-0h2p0---------0-------0h2p0-------2h4r2p0--------|
A|----0h2---------------0h2----0h2p0-------------------2p0-----|
E|-0-----------------0-----------------------------------------|

Scarcely can speak for my thinking / What you'd do to me tonight
e|-------------------------------------------------------------------------------|
B|-------------------------------------------------------------------------------|
G|--------4-2-0h2p0---------0----0h2p0---------4-2-0h2p0---------0-2h4p2p0-------|
D|----0h2---------------0h2---0h2----------0h2---------------0h2-----------2p0---|
A|-0-----------------0------------------0-----------------0----------------------|
E|-------------------------------------------------------------------------------|

Now that the evening is slowing / Now that the end's in sight
e|-----------------------------------------------------------|
B|--------------------------|=====a=====|----|=====b=====|---|
G|-----------------------------------------------------------|
D|--------4-2-0h2---------0-------0h2p0-------2h4p2p0--------|
A|----0h2-------------0h2----0h2p0-------------------2p0-----|
E|-0---------------0-----------------------------------------|

Honey, it's easier knowing what you'd do to me tonight
e|---------------------------------------------------------------------------|
B|---------------------------------------------------------------------------|
G|--------4-2-0h2---------0----0h2p0---------4-2-0h2---------0-2h4ph2p0------|
D|----0h2-------------0h2---0h2----------0h2-------------0h2-----------2p0---|
A|-0---------------0------------------0---------------0----------------------|
E|---------------------------------------------------------------------------|

[Pre-Chorus]
Tell me
e|---------|
B|---------|
G|---------|
D|--2-2-2--|
A|--2-2-2--|
E|--0-0-0--|

Tell me
e|---------|
B|---------|
G|---------|
D|--2-2-2--|
A|--2-2-2--|
E|--0-0-0--|

Tell me, ah
e|---------|
B|---------|
G|---------|
D|--2-2-2--|(x2)
A|--2-2-2--|
E|--0-0-0--|

[Chorus]
That's the kind of love
e|---------------------------------------------------------------------------|
B|---------------------------------------------------------------------------|
G|--------4-2-0h2---------0----0h2p0---------4-2-0h2---------0-2h4p2p0-------|
D|----0h2-------------0h2---0h2----------0h2-------------0h2-----------2p0---|
A|-0---------------0------------------0---------------0----------------------|
E|---------------------------------------------------------------------------|

I’ve been dreaming of
e|----------------------------------------------------------|
B|--------------------------|=====a=====|---|=====b=====|---|
G|----------------------------------------------------------|
D|--------4-2-0h2---------0-------0h2p0------2h4p2p0--------|
A|----0h2-------------0h2----0h2p0------------------2p0-----|
E|-0---------------0----------------------------------------|

That's the kind of love
e|---------------------------------------------------------------------------|
B|---------------------------------------------------------------------------|
G|--------4-2-0h2---------0----0h2p0---------4-2-0h2---------0-2h4p2p0-------|
D|----0h2-------------0h2---0h2----------0h2-------------0h2-----------2p0---|
A|-0---------------0------------------0---------------0----------------------|
E|---------------------------------------------------------------------------|

I've been dreaming of
e|----------------------------------------------------------|
B|--------------------------|=====a=====|---|=====b=====|---|
G|----------------------------------------------------------|
D|--------4-2-0h2---------0-------0h2p0------2h4p2p0--------|
A|----0h2-------------0h2----0h2p0------------------2p0-----|
E|-0---------------0----------------------------------------|

[Chorus] (Guitar2)
PM--|
e|----------------------------|
B|----------------------------|
G|----------------------------|
D|--2p0-x-7-x-5-5-5-5-5-5-5---|(x16) 
A|----------------------------|
E|----------------------------|

[Bridge]
That's the kind of love
That's the kind of love
That's the kind of love
That’s the kind of love
Oh, oh
Let there be hotels and planes (complaints?) and grievances raised
And that kind of love
(That's the kind of love)
(That's the kind of love)
(That's the kind of love)
Oh, oh
Let there be damage ensued and tabloid news
And that kind of love
(That's the kind of love)
(That's the kind of love)
(That's the kind of love)
That's the kind of love
I've been dreaming of, ah, oh-oh-oh
e|-----------------------------------------------------------|
B|---------------------------|=====a=====|---|=====b=====|---|
G|-----------------------------------------------------------|
D|--------4-2-0h2---------0--------0h2p0------2h4p2p0--------|(x4)(ending in a 3 times, fourth time in b)
A|----0h2-------------0h2-----0h2p0------------------2p0-----|
E|-0---------------0-----------------------------------------|

[Chorus]
And that's the kind of love
e|---------------------------------------------------------------------------|
B|---------------------------------------------------------------------------|
G|--------4-2-0h2---------0----0h2p0---------4-2-0h2---------0-2h4p2p0-------|
D|----0h2-------------0h2---0h2----------0h2-------------0h2-----------2p0---|
A|-0---------------0------------------0---------------0----------------------|
E|---------------------------------------------------------------------------|

I've been dreaming of
e|----------------------------------------------------------|
B|--------------------------|=====a=====|---|=====b=====|---|
G|----------------------------------------------------------|
D|--------4-2-0h2---------0-------0h2p0------2h4p2p0--------|
A|----0h2-------------0h2----0h2p0------------------2p0-----|
E|-0---------------0----------------------------------------|

That's the kind of love
e|---------------------------------------------------------------------------|
B|---------------------------------------------------------------------------|
G|--------4-2-0h2---------0----0h2r0---------4-2-0h2---------0-2h4p2p0-------|
D|----0h2-------------0h2---0h2----------0h2-------------0h2-----------2p0---|
A|-0---------------0------------------0---------------0----------------------|
E|---------------------------------------------------------------------------|

I've been dreaming of
e|----------------------------------------------------------|
B|--------------------------|=====a=====|---|=====b=====|---|
G|----------------------------------------------------------|
D|--------4-2-0h2---------0-------0h2p0------2h4p2p0--------|
A|----0h2-------------0h2----0h2p0------------------2p0-----|
E|-0---------------0----------------------------------------|

[Chorus] (Guitar2)
PM--|
e|----------------------------|
B|----------------------------|
G|----------------------------|
D|--2p0-x-7-x-5-5-5-5-5-5-5---|(x16) 
A|----------------------------|
E|----------------------------|

****************

// h:   hammer-on
// p:   pull-off
// x:   dead note
// PM:  palm mute

****************
Наверх