Аккорды Инструкция по выживанию - Ветерок

Добавлено: @vitos
Дата добавления: 23 Февраля 2014г.
Рейтинг:
0.0
Просмотров: 352
Транспонировать - +
Вступление:
1----------------------------------------------
2|---------0---------0---------0---------0---------0-------
30---------0---------0-------------------------
4|-------0-----0---0-----0---0-----0---0---------0---------
5----2---------3---------3-----3-2-0-----3-2-0-
6|-0-2-3---------------------------------------------------

1----------------------3---------3---------0----
2|---0---------0---------0---------0---------0---------2----
3----0-------------------0---------0---------0--
4|-0---------0-----0---0---------0-----0---0-----0---2-----2
5|-----2-0-------------------------------2---------3--------
6|---------3---------3-----0-2-3----------------------------

1|-----0-----------0---------0---------3---------3----
2------2---------2---------0---------0----
3--------------0-------------0------------
4|---2-----------0-------0-----------0-----0---0------
5|-3-------3-2-0-----3-2-------2-0--------------------
6----------------------3---------3--------

10---------0---------0---------0---------3------
22---------2---------2---------2---------0------
3--0-------------------0-------------------0----
4|-5-4-----2-----2---2---5-4---2-----2---2---------0-----0--
5|-------3---------3---------3---------3-----2-0------------
6------------------------------------3----------

1|-----0---------3---------3---------0---------0--
2|-----3---------0---------0---------2---------2--
3------0---------0---------0----------
4|---0---------0-----0---0-----0---2-----2---2----
5----------2---------3---------3------
6|-3-----0-2-3------------------------------------

1-0-----0-------------------------3----------3
2-----------------------------------0---------
3|----------0-------------------------------------0-------
4|---5-4--2-------------0-------------------0----------0--
5---3-2----------0---3--2-0----2----------2---
6---------------------------3-----------3-----


 G                         C
Пролетал ветерок по проселкам,
 D                    G
По лентам бетонных дорог,
 G                 C                 D
Пролетал ветерок по Сибирским просторам
 G
Лесов и болот...
 C                                Am
И с собой ветерок нес протяжную песню
 D            G
Бескрайних полей,
 C                    Am
Вей, ветерок, вей ветерок,
 D             G
Я прошу тебя, вей!


А внизу - города и огни,
И заводов стальных корабли...
А внизу, как всегда
Затаенная правда погибшей любви...
Но во имя людей
И рассудку земному порой вопреки,
Слышишь, вей ветерок, вей ветерок
Прогони все дождливые тучи тоски
Вей, ветерок, вей ветерок,
Я прошу тебя, вей!


Может, там, впереди
И дожди, и громадные тьмы облаков,
Ты лети, не грусти, 
Даже если дожди одолеть не легко...
Ради нашей любви,
Ради дальних дорог, ради солнечных дней, 
Вей, ветерок, вей ветерок,
Я прошу тебя, вей!
Вей, ветерок, вей ветерок,
Я прошу тебя, вей!
comments powered by Disqus
Наверх