Аккорды Juan Luis Guerra - Cuando Me Enamoro (feat. Enrique Iglesias)

Добавлено: @romashka
Дата добавления: 05 Марта 2024г.
Рейтинг:
0.0
Просмотров: 42
Транспонировать - +
[Capo 1st fret] 

[Intro]
G|----------------------------|----------------------------|-
D|------8-8--------8b-6-------|-----8-8---------8b-x-------|-
A|-6-6------6--6-6------8-(6)-|-6-6------6--6-6------6/(4)-|-
E|----------------------------|----------------------------|-
  Dm                       F       
  Ooooh Oooooh             Oooooh, Oooooh

G|----------------------------|----------------------------|-
D|------6-6--------6b-4-------|------6-6--------6b-x-------|-
A|-4-4------4--4-4------6-(4)-|-4-4------4--4-4------4/(6)-|-
E|----------------------------|----------------------------|-
  C                        C       
  Ooooh Oooooh              Oooooh, Oooooh

[Verse 1]
G|----------------------------|----------------------------|-
D|------8-8--------8b-6-------|-----11-11-------11-9-------|-
A|-6-6------6--6-6------8-(6)-|-9-9------9--9-9------11/(4)|-
E|----------------------------|----------------------------|-
     Dm 
Si pudiera bajarte una estrella del cielo
     F
lo haria sin pensarlo dos veces
G|----------------------------|----------------------------|-
D|------6-6--------6b-4-------|----------------------------|-
A|-4-4------4--4-4------6-(4)-|-----6--6--------6b-—---(6)-|-
E|----------------------------|-4-4------4--4-4------4/----|-
           C
porque te quiero, ay
            G
y hasta un lucero

[Verse 2]
G|----------------------------|----------------------------|-
D|------8-8--------8b-6-------|-----11-11-------11-9-------|-
A|-6-6------6--6-6------8-(6)-|-9-9------9--9-9------11/(4)|-
E|----------------------------|----------------------------|-
      Dm                                
Y si tuviera el naufragio de un sentimiento
F
seria un velero en la isla
G|----------------------------|----------------------------|-
D|------6-6--------6b-4-------|----------------------------|-
A|-4-4------4--4-4------6-(4)-|-----6--6--------6b-—---(6)-|-
E|----------------------------|-4-4------4--4-4------4/----|-
         C                 G
de tus deseos, de tus deseos


[Bridge]
G|----------------------------|---------------------------|-
D|----------------------------|---------------------------|-
A|------8--8--------8b--------|-----4--4--------4-----(6)-|-
E|-6-6-------6--6-6-----8/(2)-|-2-2------2--2-2-----2/----|-
Am
Pero por dentro entiendo que no puedo
                F
y a veces me pierdo...

[Chorus]
G|----------------------------|----------------------------|-
D|------6-6--------6b-4-------|------6-6--------6b-x-------|-
A|-4-4------4--4-4------6-(4)-|-4-4------4--4-4------4/(6)-|-
E|----------------------------|----------------------------|-
           C
Cuando me enamoro
 
A veces desespero,

Cuando me enamoro,

Cuando menos me lo espero,

G|----------------------------|----------------------------|-
D|----------------------------|----------------------------|-
A|------6-6--------6b-4-------|-----6--6--------6b-—-------|-
E|-4-4------4--4-4------6-(4)-|-4-4------4--4-4------4/(---|-
               G
Cuando me enamoro

se detiene el tiempo, 

G|----------------------------|---------------------------|-
D|----------------------------|---------------------------|-
A|------8--8--------8b--------|-----4--4--------4-----(6)-|-
E|-6-6-------6--6-6-----8/(2)-|-2-2------2--2-2-----2/----|-
                Am
me viene el alma al cuerpo,
  F                C
sonrio, cuando me enamoro

G|----------------------------|-
D|------6-6--------6b-x-------|-
A|-4-4------4--4-4------4-(6)-|-
E|----------------------------|-

[Interlude]
G|----------------------------|----------------------------|-
D|------8-8--------8b-6-------|-----8-8---------8b-x-------|-
A|-6-6------6--6-6------8-(6)-|-6-6------6--6-6------6/(4)-|-
E|----------------------------|----------------------------|-
  Dm                       Dm       
  Ooooh Oooooh             Oooooh, Oooooh

G|----------------------------|----------------------------|-
D|------6-6--------6b-4-------|------6-6--------6b-x-------|-
A|-4-4------4--4-4------6-(4)-|-4-4------4--4-4------4/(6)-|-
E|----------------------------|----------------------------|-
  C                        C       
  Ooooh Oooooh              Oooooh, Oooooh

[Verse 3]
G|----------------------------|----------------------------|-
D|------8-8--------8b-6-------|-----11-11-------11-9-------|-
A|-6-6------6--6-6------8-(6)-|-9-9------9--9-9------11/(4)|-
E|----------------------------|----------------------------|-
Dm
Si la luna seria tu premio,
 F
yo juraria hacer cualquier cosa,

G|----------------------------|----------------------------|-
D|------6-6--------6b-4-------|----------------------------|-
A|-4-4------4--4-4------6-(4)-|-----6--6--------6b-—---(6)-|-
E|----------------------------|-4-4------4--4-4------4/----|-
      C                          G
por ser su dueño, ay, por ser tu dueño

G|----------------------------|----------------------------|-
D|------8-8--------8b-6-------|-----11-11-------11-9-------|-
A|-6-6------6--6-6------8-(6)-|-9-9------9--9-9------11/(4)|-
E|----------------------------|----------------------------|-
         Dm
Y si en tus sueños escuchas el llanto de mis lamentos,
 F
en tus sueños no sigas dormida,

G|----------------------------|----------------------------|-
D|------6-6--------6b-4-------|----------------------------|-
A|-4-4------4--4-4------6-(4)-|-----6--6--------6b-—---(6)-|-
E|----------------------------|-4-4------4--4-4------4/----|-
         C
que es verdadero, ay,
           G
no es un sueño, no

[Bridge]
G|----------------------------|---------------------------|-
D|----------------------------|---------------------------|-
A|------8--8--------8b--------|-----4--4--------4-----(6)-|-
E|-6-6-------6--6-6-----8/(2)-|-2-2------2--2-2-----2/----|-
Am
Y me alegro que a veces al final
             F
no encuentres un momento, ooh no...




[Chorus] Play (x2)
G|----------------------------|----------------------------|-
D|------6-6--------6b-4-------|------6-6--------6b-x-------|-
A|-4-4------4--4-4------6-(4)-|-4-4------4--4-4------4/(6)-|-
E|----------------------------|----------------------------|-
           C
Cuando me enamoro
 
A veces desespero,

           C
Cuando me enamoro,

Cuando menos me lo espero,

G|----------------------------|----------------------------|-
D|----------------------------|----------------------------|-
A|------6-6--------6b-4-------|-----6--6--------6b-—-------|-
E|-4-4------4--4-4------6-(4)-|-4-4------4--4-4------4/(---|-
               G
Cuando me enamoro

se detiene el tiempo, 

D|----------------------------|---------------------------|-
A|------8--8--------8b--------|-----4--4--------4-----(6)-|-
E|-6-6-------6--6-6-----8/(2)-|-2-2------2--2-2-----2/----|-
                Am
me viene el alma al cuerpo,
  F                C
sonrio, cuando me enamoro

G|----------------------------|-
D|------6-6--------6b-x-------|-
A|-4-4------4--4-4------4-(6)-|-
E|----------------------------|-


[Outro][Interlude]
G|----------------------------|----------------------------|-
D|------8-8--------8b-6-------|------8-8--------8b-x-------|-
A|-6-6------6--6-6------8-(6)-|- 6-6------6--6-6-----8-(6)-|-
E|----------------------------|----------------------------|-
  Dm                       Dm       
  Ooooh Oooooh             Oooooh, Oooooh

G|----------------------------||
D|----------------------------||
A|-4r-------------------------||
E|----------------------------||
  C
  Ooooh 

End: 03:20
Наверх