Аккорды Kenny Chesney - Big Star

Добавлено: @romashka
Дата добавления: 19 Декабря 2016г.
Рейтинг:
0.0
Просмотров: 493
Tuning:standard

Intro:guitar 1:electric
e|-------------------------------------------------------------------------|
B|-2-3------2-3-------------12-10h125-----2-3---2-3---11---11--11---------|
G|-2-2------2-2----------------------------2-2---2-2------7---7---7-5h7----|
D|-2-0------2-0----------------------------2-0---2-0-----------------------|
A|-0--------0------------------------------0-----0-------------------------|
E|-------------------------------------------------------------------------|

Verse 1:
Guitar 1:electric...play as many times as needed.
e|--------|-------------|---2-2-x--------|
B|--2-3---|--2-x-x-3----|---3-3-x--------|
G|--2-2---|--2-x-x-2----|---2-2-x--------|
D|--2-0---|--2-x-x-0----|----------------|
A|--0-----|--0-x-x------|----------------|
E|--------|-------------|----------------|
In middle add this/ before chorus/

Acoustic:
e|----------------------------------------|
B|--2-2-2-2-2-2-x-x-3-3-3-3-3-3-----------|
G|--2-2-2-2-2-2-x-x-2-2-2-2-2-2-----------|
D|--2-2-2-2-2-2-x-x-0-0-0-0-0-0-----------|
A|--0-0-0-0-0-0-x-x-----------------------|
E|----------------------------------------|

Electric guitar 2
Fills:
e|-------------------------------------|
B|-------------------------------------|
G|---4p2-4p2-/9------------------------|
D|-------------------------------------|
A|-------------------------------------|
E|-------------------------------------|

Chorus:
Electric:guitar 1
e|------|---------------|
B|-2-3--|-----7---------|
G|-2-2--|----7----------|
D|-2-0--|---------------|
A|-0----|---------------|
E|------|---------------|
x8/ 

Verse:
Guitar 1:electric...play as many times as needed.
e|--------|-------------|---2-2-x--------|
B|--2-3---|--2-x-x-3----|---3-3-x--------|
G|--2-2---|--2-x-x-2----|---2-2-x--------|
D|--2-0---|--2-x-x-0----|----------------|
A|--0-----|--0-x-x------|----------------|
E|--------|-------------|----------------|
In middle add this/ before chorus/

Acoustic:
e|----------------------------------------|
B|--2-2-2-2-2-2-x-x-3-3-3-3-3-3-----------|
G|--2-2-2-2-2-2-x-x-2-2-2-2-2-2-----------|
D|--2-2-2-2-2-2-x-x-0-0-0-0-0-0-----------|
A|--0-0-0-0-0-0-x-x-----------------------|
E|----------------------------------------|

Fill:
e|---------|
B|--4p2-2~~|
G|-------0-|
D|---------|
A|---------|
E|---------|

Chorus:
Electric:guitar 1
e|------|---------------|
B|-2-3--|-----7---/13-12|
G|-2-2--|----7----------|
D|-2-0--|---------------|
A|-0----|---------------|
E|------|---------------|
x8/ 

Solo
e|---------------------------------------------------------------------------|
B|---------------------------------------------------------------------------|
G|-------/12-12-12-12-/12-12-12-12-12p9-7h9-5h7-9-14bp12-14p12-10----5h7~~---|
D|---------------------------------------------------------------------------|
A|---------------------------------------------------------------------------|
E|---------------------------------------------------------------------------|

e|----------------------------------------------------21---------------------|
B|-------10b-------------------------------12-12-----------------------2~~~~~|
G|-7h9----9b----14bp12-10--------5h7-7h9-9-------9----------14p12-14---------|
D|---------------------------------------------------------------------------|
A|---------------------------------------------------------------------------|
E|---------------------------------------------------------------------------|

Bridge:country effect
Guitar 1
e|---------------------------------------------------------------------------|
B|-2-0-3-1-0-------/15---/13----------3--------------------------------------|
G|--------------------12-----10-------2--------------------------------------|
D|------------------------------------0--------------------------------------|
A|---------------------------------------------------------------------------|
E|---------------------------------------------------------------------------|

Breakdown:
Guitar 1:electric
e|---------------------------------------------------------------------------|
B|--------------x-2-x-3-x-x----x-2-x-3---x-2-x-x-x-x-----2-------------------|
G|-----8/0------x-2-x-2-x-x----x-2-x-2---x-2-x-x-x-x-----2-------------------|
D|--------------x-2-x-0-x-x----x-2-x-0---x-2-x-x-x-x-----2-------------------|
A|--------------x-0-x-0-x-x----x-0-x-0---x-0-x-x-x-x-----0-------------------|
E|---------------------------------------------------------------------------|

Chorus:
Electric:guitar 1
e|------|---------------|
B|-2-3--|-----7---------|
G|-2-2--|----7----12-12b|
D|-2-0--|---------------|
A|-0----|---------------|
E|------|---------------|
x8/ 

Outro:
e|----------------------------------------------------------------10---10--------------|
B|---13-----------13--------x-x-x-x--2-2-x--2-2-2-2-3-----2-3-2-9----9---17p15-15p13-12|
G|-----12--14br12-----------x-x-x-x--2-2-x--2-2-2-2-2-----2-2-2------------------------|
D|--------------------------x-x-x-x--2-2-x--2-2-2-2-0-----2-0-2------------------------|
A|--------------------------x-x-x-x--0-0-x--0-0-0-0-0-----0---0------------------------|
E|-------------------------------------------------------------------------------------|
Но если и музыка нас оставит, что будет тогда с нашим миром? (Гоголь)
Мы стремимся к созданию контента, соответствующего всем нормам законодательства и уважающего интеллектуальную собственность. Мы также придаем большое значение тому, чтобы не задеть никого и не оскорбить чьи-либо чувства. Если у вас есть вопросы или претензии по размещенному материалу, пожалуйста, сообщите нам об этом.
Шрифт
-
0
+
Прокрутка
-
0
+
Стоп
Наверх