Аккорды Kenny Chesney - Beer In Mexico

Добавлено: @romashka
Дата добавления: 19 Декабря 2016г.
Рейтинг:
0.0
Просмотров: 472
Guitar 1: regular strumming.
e|---------------------------------------------------------------------------|
B|---------------------------------------------------------------------------|
G|--6h7-7--7--7--7--7-6-7-9-9-7----------------------------------------------|
D|--0---0--0--0--0--0-0-0-0-0-0----------------------------------------------|
A|---------------------------------------------------------------------------|
E|---------------------------------------------------------------------------|

Guitar 2: Palm Muted+Upstrokes.
e|---------------------------------------------------------------------------|
B|---10--8--7--7-8-7----10-8-7-----------------------------------------------|
G|----7--7--7--7-7-7-----7-7-7--9-7-7----------------------------------------|
D|---------------------------------------------------------------------------|
A|---------------------------------------------------------------------------|
E|---------------------------------------------------------------------------|

Guitar 3: clean
e|-2----2----2---------------------------------------------------------------|
B|-3----3----3---------------------------------------------------------------|
G|-2----2----2---------------------------------------------------------------|
D|-0----0----0---------------------------------------------------------------|
A|---------------------------------------------------------------------------|
E|---------------------------------------------------------------------------|

Verse: Guitar 2 plays the same chord every beat.

Guitar 2: Upstrokes, then mute after note.
e|-2-----------|
B|-3-----------|
G|-2-----------|
D|-0-----------|
A|-------------|
E|-------------|

Guitar 3: Plays Chords D D/F# and G x2
Listen for timing.Then A before the chorus.
       D     D/F#    G       A
e|-----2------2------3----|--0-------------------------------------------------|
B|-----3------3------0----|--2-------------------------------------------------|
G|-----2------2------0----|--2-------------------------------------------------|
D|-----0------0------0----|--2-------------------------------------------------|
A|------------0------2----|--0-------------------------------------------------|
E|------------2------3(x2)|--0-------------------------------------------------|

Chorus:
Guitar 3: Plays chords D  D/F#  and G (x2) for how many ever times.
 Pre/  D   D/F#  G
e|---|-2-----2---3-----------------------------------------------------------------|
B|-3b|-3-----3---0-----------------------------------------------------------------|
G|---|-2-----2---0-----------------------------------------------------------------|
D|---|-0-----0---0-----------------------------------------------------------------|
A|---|-------0---2-----------------------------------------------------------------|
E|---|-------2---3(x2)-------------------------------------------------------------|

Post Chorus: How many ever times it repeats.
Guitar 1: regular strumming.
e|---------------------------------------------------------------------------|
B|---------------------------------------------------------------------------|
G|--6h7-7--7--7--7--7-6-7-9-9-7----------------------------------------------|
D|--0---0--0--0--0--0-0-0-0-0-0----------------------------------------------|
A|---------------------------------------------------------------------------|
E|---------------------------------------------------------------------------|

Guitar 2: Palm Muted+Upstrokes.
e|---------------------------------------------------------------------------|
B|---10--8--7--7-8-7----10-8-7-----------------------------------------------|
G|----7--7--7--7-7-7-----7-7-7--9-7-7----------------------------------------|
D|---------------------------------------------------------------------------|
A|---------------------------------------------------------------------------|
E|---------------------------------------------------------------------------|

Then back to verse: This time there's a little guitar solo 
during it.Listen for timing.

Verse: Guitar 2 plays the same chord every beat.
Guitar 2:Upstrokes, then mute after note.
e|-2-----------|
B|-3-----------|
G|-2-----------|
D|-0-----------|
A|-------------|
E|-------------|

Guitar 3: Plays Chords D D/F# and G x2. Then A before the chorus.
       D     D/F#    G       A
e|-----2------2------3----|--0-------------------------------------------------|
B|-----3------3------0----|--2-------------------------------------------------|
G|-----2------2------0----|--2-------------------------------------------------|
D|-----0------0------0----|--2-------------------------------------------------|
A|------------0------2----|--0-------------------------------------------------|
E|------------2------3(x2)|--0-------------------------------------------------|

Guitar 1:
                    pre-chorus
e|------------------------|---------------------------------------------------|
B|--3b-3~~-2b-2~~----(X2)-|---3-1---------------------------------------------|
G|------------------------|------0-2~-----------------------------------------|
D|------------------------|---------------------------------------------------|
A|------------------------|---------------------------------------------------|
E|------------------------|---------------------------------------------------|

Chorus: Same

Guitar 3: Plays chords D  D/F#  and G(x2) for how many ever times.
 Pre/   D   D/F# G
e|---|-2-----2---3-------------------|----------------------------------------------|
B|-3b|-3-----3---0-------------------|----------------------------------------------|
G|---|-2-----2---0-------------------|-------4p2--7-7-------------------------------|
D|---|-0-----0---0-------------------|----------------------------------------------|
A|---|-------0---2-------------------|----------------------------------------------|
E|---|-------2---3(x2)---------------|----------------------------------------------|

Mini solo after chorus:
Bend up to a 1/4 step.except for the 17. For that bend to next note

e|--------------------3b-3h5-5-3/0---------------------------------------------17b18|
B|--1/3br--1/3br---3---------------/10h12p10--108-75-5h7-/9/10-108-86---------------|
G|----------------------------------------------------------------------------------|
D|----------------------------------------------------------------------------------|
A|----------------------------------------------------------------------------------|
E|----------------------------------------------------------------------------------|

e|-17p15p14-12--12h14------12h15-12h14-12h16--------------17b19-17------17b19-17-----|
B|------------------12h15---------------------------------18b20---18----18b20---18---|
G|------------------------------------------------------------------19------------19-|
D|-----------------------------------------------------------------------------------|
A|-----------------------------------------------------------------------------------|
E|-----------------------------------------------------------------------------------|
End of solo

Bridge: Strike note then mute.
Chords: D  D/F#  G. How many ever times.
   D D/F# G
e|--2----2-3-------------------------------------------------------------------|
B|--3----3-0-------------------------------------------------------------------|
G|--2----2-0-------------------------------------------------------------------|
D|--0----0-0-------------------------------------------------------------------|
A|-------0-2-------------------------------------------------------------------|
E|-------2-3-------------------------------------------------------------------|

Fill/Bridge2:
Guitar 1: Palm Muted(Really quiet) 
CONSTANT STRUMMING: how many ever times. Then at end of fill 
he starts going starting from palm mute to regular note.           

e|------------------------------------------|---------------------------------|
B|------------------------------------------|---------------------------------|
G|--6h7-7--7--7--7--7-6-7-9-9-7-------------|---------------------------------|
D|--0---0--0--0--0--0-0-0-0-0-0-------------|---------------------------------|
A|------------------------------------------|---------------------------------|
E|------------------------------------------|---3--3-3-3-3-3-3-3--------------|

Guitar 2: palm muted.upstrokes. How many ever times.
e|---------------------------------------------------------------------------|
B|---10--8--7--7-8-7----10-8-7-----------------------------------------------|
G|----7--7--7--7-7-7-----7-7-7--9-7-7----------------------------------------|
D|---------------------------------------------------------------------------|
A|---------------------------------------------------------------------------|
E|---------------------------------------------------------------------------|

Guitar 3: clean: upstroke then mute. Rake the notes.
Hit these from time to time. Listen for timing.
 raked         non raked
e|---2-----------------2-------------------------------------------------------|
B|-----3---------------3-------------------------------------------------------|
G|------2-----same-as--2-------------------------------------------------------|
D|-------0-------------0-------------------------------------------------------|
A|-----------------------------------------------------------------------------|
E|-----------------------------------------------------------------------------|

Chorus:
e|---|-2-----2---3-------------------|----------------------------------------------|
B|-3b|-3-----3---0-------------------|----------------------------------------------|
G|---|-2-----2---0-------------------|-------4p2--7-7-------------------------------|
D|---|-0-----0---0-------------------|----------------------------------------------|
A|---|-------0---2-------------------|----------------------------------------------|
E|---|-------2---3(x2)---------------|----------------------------------------------|

Pre solo: plays main riff again.
Guitar 1: How many ever times.
e|---------------------------------------------------------------------------|
B|---------------------------------------------------------------------------|
G|--6h7-7--7--7--7--7-6-7-9-9-7----------------------------------------------|
D|--0---0--0--0--0--0-0-0-0-0-0----------------------------------------------|
A|---------------------------------------------------------------------------|
E|---------------------------------------------------------------------------|

Solo: 2 guitars in it.

Guitar 2: 
e|-----10-10h12p108-85-7-5-5h7-7h9/10-12-14-17p14-12-15p12-10h12--15--12-----|
B|-3b-3----------------------------------------------------------------------|
G|---------------------------------------------------------------------------|
D|---------------------------------------------------------------------------|
A|---------------------------------------------------------------------------|
E|---------------------------------------------------------------------------|

Then the 2nd guitar jumps in.
Guitar 2: Plays after Guitar one's 1st solo.
bends are 1/4 step if there's not a note next 
the bend sign."b"
e|-------------------------------------------------------------10b11---------|
B|----15b-15p12-14p12-12p10---10p7-10p7h10---10--10--------------------------|
G|--------------------------------------------7-7---7-9b-7-9-7---------------|
D|-------------------------------------------------------------------7-----|
A|---------------------------------------------------------------------------|
E|---------------------------------------------------------------------------|

Back to guitar 1
Guitar 1: some kind of weird distortion effect.
e|-1/2-1/2-1/2-1/2-1/2-1/2-----------------------17----15----15-------------12|
B|-2/3-2/3-2/3-2/3-2/3-2/3-------------------19b----17b---15b------13b-13h15--|
G|--------------------------5/4p2----0h2p0------------------------------------|
D|-----------------------------------------5----------------------------------|
A|----------------------------------------------------------------------------|
E|----------------------------------------------------------------------------|

e|---------------------------------------------------------------------------------|
B|-6p3--6p3--6p3--6p3--6-3---------------------------------------------------------|
G|----7-----7----7----7------------------------------------------------------------|
D|---------------------------------------------------------------------------------|
A|---------------------------------------------------------------------------------|
E|---------------------------------------------------------------------------------|

Guitar 2:same effects.
e|--19b20---19-17-19~~-19-17-14b---14/15-17-15p13-12p10----------------------|
B|-------------------------------------------------------12h15-15b-----------|
G|---------------------------------------------------------------------------|
D|---------------------------------------------------------------------------|
A|---------------------------------------------------------------------------|
E|---------------------------------------------------------------------------|

Guitar 1: Starts fading.towards the end.
e|-----------------------------------------------15-12-12b-------------------|
B|--11h12h15-11h12h15-11h12h15-11h12h15--11h12h15----------------------------|
G|---------------------------------------------------------------------------|
D|---------------------------------------------------------------------------|
A|---------------------------------------------------------------------------|
E|---------------------------------------------------------------------------|

just bend a half step on this one. Release finger 
so you strum the 0 note
e|-17-17-17-17-17-17-17-17-17-17-17-17-|-------------------------------------|
B|-17b17b17b17b17b17b17b17b17b17b17b17-|-0h3br-0h3br-0h3br-0h3br-0h3br-0h3br-|
G|-------------------------------------|-------------------------------------|
D|-------------------------------------|-------------------------------------|
A|-------------------------------------|-------------------------------------|
E|-------------------------------------|-------------------------------------|

                      trill~~~~~~~~~~~~ trill~~~~~~~~~~~~~~tr~~~~~~
e|------------------------12----12h14-------------12h15--------------12h17---|
B|0h3br-0h3br----------------------------------------------------------------|
G|-------------1~~~~~~~------------------------------------------------------|
D|---------------------------------------------------------------------------|
A|---------------------------------------------------------------------------|
E|---------------------------------------------------------------------------|
the ~~ next to trill means how long you trill

Starting to FADE
e|--15p12--15p12---15p12----12/15-19-12/15-19-12/15-19-------12-----12-----12|
B|-------------------------------------------------------15b-12-15b-12-15b-12|
G|---------------------------------------------------------------------------|
D|---------------------------------------------------------------------------|
A|---------------------------------------------------------------------------|
E|---------------------------------------------------------------------------|

Lyrics:
Staring out into the wild blue yonder
So many thoughts to sit and ponder
About life and love and the lack of
And this emptiness in my heart
Too old to be wild and free
Still too young to be over the hill
Should try to grow up but who knows where to start.

So I'll just sit right here and have another beer in Mexico
Do my best to waste another day
Sit right here and have another beer in Mexico
Let the warm air melt these blues away.

Sun comes up and the sun sinks down
And I've seen them both in this tourist town
Up for days in a rage
Just tryin' to search my soul
For all the answers, and the reasons why
I'm at these crossroads in my life
And I really don't know which way to go.

So I'll just sit right here and have another beer in Mexico
Do my best to waste another day
Sit right here and have another beer in Mexico
Let the warm air melt these blues away.

Maybe I'll settle down
Get married or stay single and stay free
Which road I travel is still a mystery to me.

So I'll just sit right here and have another beer in Mexico
Do my best to waste another day
Sit right here and have another beer in Mexico
Let the warm air melt these blues away.

Down in Mexico...

| tr trill(rapid hammer on and pull of)
Но если и музыка нас оставит, что будет тогда с нашим миром? (Гоголь)
Мы стремимся к созданию контента, соответствующего всем нормам законодательства и уважающего интеллектуальную собственность. Мы также придаем большое значение тому, чтобы не задеть никого и не оскорбить чьи-либо чувства. Если у вас есть вопросы или претензии по размещенному материалу, пожалуйста, сообщите нам об этом.
Шрифт
-
0
+
Прокрутка
-
0
+
Стоп
Наверх