Аккорды Kevin Johansen - La Tangómana

Добавлено: @romashka
Дата добавления: 13 Марта 2024г.
Рейтинг:
0.0
Просмотров: 30
Транспонировать - +
          G           D/F#        Dm/F        C/E
e-------|-----------|-----------|-----------|-----------|
B-------|-----------|-----------|-----------|-----------|
G-------|-0----0----|-----------|-----------|-----------|
D-0-2-4-|----0---0--|-4--0-4-0--|-3--0-3-0--|-2----2----|
A-------|-----------|-----------|-----------|----3---3--|
E-------|-----------|-----------|-----------|-----------|

   Cm/Eb       G/B         Am
e|-----------|-----------|---------------|
B|-----------|-----------|---------------|
G|-----------|-----------|---------------|
D|-1----1----|-0----0----|-0----0--0-2-4-|
A|----3---3--|----2---2--|----0----------|
E|-----------|-----------|---------------|

        G
Era la hija de
    D/F#       Dm/F
la hija de la hija de
    C/E       Cm/Eb       G/D
la hija de la hija de la hija de
Am       D     G
Alguien muy famoso

        D             G
No era hija del verdulero
       D               G
Ni de tipos cual vos o yo
       C     B7        Em
No era hija del buen dinero
        Am                 D
Aunque quizás su chosno sudó

A tangómana A llamaban
De milonga en milonga voy, decía
Y cuando clases tomaba
Era de tutor en tutor

Era la hija de...

G  D/F#  Dm/F  C  Cm  G/B  C D G

Ella era de estampa fina
De quinta generación
Era de buena familia
De esas que leés en La Nación

Era la hija de... alguien influyente...

Yo no soy un niño bien
Más bien soy un niño mal
Pero si tanto querés
Puedo ser tu niño glam

         G    D/F#        Dm/F
Che, tangómana, tangómana
               C         Cm
Cuánto más querés gastar?
           G
Tangómana, tangómana
C         D     G
Compranos otra ronda!

Era la hija de...

G  D/F#  Dm/F  C  Cm  G/B  C D G
Наверх