Аккорды Kevin Johansen - Waiting For The Sun To Shine

Добавлено: @romashka
Дата добавления: 13 Марта 2024г.
Рейтинг:
0.0
Просмотров: 38
Транспонировать - +
No Capo

[Chords]
    Bm7b5 Faug   C# 
e|---x-----x-----1--------------------------------------|
B|---3-----2-----2--------------------------------------|
G|---2-----2-----1--------------------------------------|
D|---3-----3-----3--------------------------------------|
A|---2-----4-----4--------------------------------------|
E|---x-----x-----x--------------------------------------|

[Intro]

e|-------------------------|------------------------------------|
B|---2---0---2---0---2-----|---2---0---2---0--------------------|
G|-3---3---3---3---3-------|-3---3---3---3---3-0----------------|
D|-------------------------|------------------------------------|
A|-------------------------|------------------------------------|
E|-------------------------|---------------------1-x-1-x-1-x-1-x|

[Verse]
           F 
Dizem que sempre que choveu parou 
         F                Dm 
Pero un día que se me nubló 
 Bb 
Waiting for the sun to shine 
 Bm7b5                        F
Waiting for the sun to shine 

[Verse]
            F                        
O tempo é grão de areia pelo ar 
       F                  Dm
No va perder la vida por quedar 
 Bb 
Waiting for the sun to shine 
 Bm7b5
Waiting for the sun to shine 
 F              Faug           F
Waiting for the sun to shine 

[Chorus]
 C#    
Lonely, tan solo, sozinho 
 C#
Tan solo, lonely , sozinho 
 F          
Sunshine 
 C#            
Lonely, tan solo, sozinho 
 C#  
Tan solo, lonely , sozinho 
 F   Dm       
Sunshine 
Bb                        Bm7b5
Esperando o sol brilhar (Waiting for the sun to shine) 
Bb                         Bm7b5
Esperando el sol brillar (Waiting for the sun to shine) 
 F                              Faug                   F
Waiting for the sun to shine (Waiting for the sun to shine) 

[Verse]
          F 
O som da rua vem nos revelar 
           F                         
Que nadie canta solo por cantar 
 Bb 
Waiting for the sun to shine (Waiting for the sun to shine) 
 Bm7b5 
Waiting for the sun to shine (Waiting for the sun to shine) 
          F 
Pessoas precisam de espaço e paz 
          F                Dm
La noche nunca pareció fulgaz
 Bb  
Waiting for the sun to shine (Waiting for the sun to shine) 
 Bm7b5  
Waiting for the sun to shine (Waiting for the sun to shine) 
 F                             Faug                    F 
Waiting for the sun to shine (Waiting for the sun to shine) 

[Chorus]
 C#           
Lonely, tan solo, sozinho 
 C#   
Tan solo, lonely , sozinho 
 F                                   
Sunshine 
 C#        
Lonely, tan solo, sozinho 
 C# 
Tan solo, lonely , sozinho 
 F   Dm      
Sunshine 
Bb                                                Bm7b5 
Esperando o sol brilhar (Waiting for the sun to shine) 
 Bb
Waiting for the sun to shine 
F                          C#                      F
Esperando el sol brillar (Waiting for the sun to shine)  
Наверх