Аккорды «King Crimson»

King Crimson
King Crimson — английская рок-группа, созданная гитаристом Робертом Фриппом и барабанщиком Майклом Джайлзом в 1968 году. Музыка группы стилистически представляет собой прогрессивный рок. Название King Crimson придумал Питер Синфилд как синоним Веельзевула, принца демонов; по словам Роберта Фриппа, Вельзевул — это английская версия арабской фразы, звучащей как «Бил Сабаб» и означающей «целеустремлённый человек». King Crimson — английская рок-группа, созданная гитаристом Робертом Фриппом и барабанщиком Майклом Джайлзом в 1968 году. Музыка группы стилистически представляет собой прогрессивный рок. Название King Crimson придумал Питер Синфилд как синоним Веельзевула, принца демонов; по словам Роберта Фриппа, Вельзевул — это английская версия арабской фразы, звучащей как «Бил Сабаб» и означающей «целеустремлённый человек». Скрыть...
Популярные аккорды King Crimson:
алфавиту | просмотрам | случайно
  • Riff 1
    E|-------------------------|
    B|-------------------------|
    G|-------------------------|
    D|-------------------------|
    A|------1-------1------1---|
    E|0--4----0--4----0--4---0-|
    
    Riff 2
    E|--------------------------|
    B|--------------------------|
    G|--------------------------|
    D|---0--2----0--2----0-2----|
    A|1-------1-------1-------1-|
    E|--------------------------|
    
    Riff…
  • |Вступление
    | 4/4
    | F#m                              
    
       E
    ||---------------------|--------------------------|--------------------|----
    ||10-------109----9---|--9/10/9------------------|--------------------|----
    ||11-------------------|--------------9/11/9------|9-----9-9--9--9-----|9---
    ||11----12-------12----|---------12----------11/9-|9-----9-11-11-11----|9---
    ||9--------------------|--------------------------|11---------------11-|----
    ||---------------------|--------------------------|--------------------|----
    
    Close…
  • (E minor Arpeggio)
    1 2 3 4
    ---------------------------------|
    ---------------------------------|
    -4---------------4---------------| repeated 8 times then
    -------7---5---------7---5-------|
    ---7-----7---7-----7---7---7---7-|
    -----7---------7-------------7---|
    
    
    distorted…
  • e:--------|------------|------------|------------|------------|------------|
    B:--------|------------|------------|------------|------------|------------|
    G:--------|------9-----|------------|7-----7--9--|7-----------|------------|
    D:2-------/7-----------|------------|---10-------|---10-7---10|10⁄7--------|
    A:--------|------------|------------|------------|------------|------------|
    E:--------|------------|------------|------------|------------|------------|
    
    Am…
  • Em                    F#m+(Add B)       Am              B+  B
    The wall on which the prophets wrote is cracking at the seams
    Upon the instruments of death the sunlight brightly gleams
    When every man is torn apart with nightmares…
  • D               C              E     B
    Ah----  Ah----  Ah----         Ah----
    
    (Вступление Припев)
        D           C           Em    B
    e|--------------------------------------------------------|
    B|-------------------------(8)(8)----------------------7--|
    G|--7--7--7--7--5--5--5--5--9--9--8---------6---8---9-----|…
  • 1          2          3            4
    E----------------------------------------------------|
    B-T--------------------------------------------------|
    G-A--------------------------------------------------| 8 раз.
    D-B--------------------------------------------------|
    A-----0----7--6--5--0--3--0--------------------3--0--|
    E-------------------------------0--3--0--3--0--------|…
  • E              F#m7/E
    Cadance and Cascade
          G#m/E     F#m7/E
    Kept a man named Jade;
    E          F#m7/E
    Cool in the shade
             G#m/E    F#m7/E
    While his audience played.
    E      Em7        A         E
    Purred, whispered,…
  • Wind, Sounds 0:27
    G---|-----------------------||---------------------------|----------------------
    D---|-----------------------||*--------------------------|----------------------
    A---|-----------------------||*--3-----3-----3-----3-----|----------------------
    E---|-----------------------||---------------------------|--1--------2----------
    
    
    
    G---------|-----------------------------|--------------------------|------------
    D---------|-----------------------------|--------------------------|------------
    A---------|--3-----3--3-----3-----3--3--|--------------------------|--3---------
    E---3-----|-----------------------------|--1--------2--------3-----|------------
    
    
    
    G---------------------------|--------------------------|-----------------|------
    D---------------------------|--------------------------|-----------------|------
    A---3--3-----3--3-----3--3--|--------------------------|--3--------------|------
    E---------------------------|--1--------2--------3-----|-----------------|------
    
    
    
    G---------------------|-----------5-----------------5--|------------||----------
    D---------------------|--------------------------------|-----------*||----------
    A------------------15⁄|--3-----3-----------3-----3-----|--1--------*||--3-------
    E---------------------|--------------------------------|------------||----------
    
    
    
    G------------------------|--------------------------|---------------------------
    D------------------------|--------------------------|---------------------------
    A---3--3-----3-----3--3--|--------------------------|--3-----3--3-----3---------
    E------------------------|--1--------2--------3-----|---------------------------
    
    
    
    G---------|--------------------------|--------------------------------|---------
    D---------|--------------------------|--------------------------------|---------
    A---3--3--|--------------------------|--3-----3--3-----3--3-----3--3--|---------
    E---------|--1--------2--------3-----|--------------------------------|--1------
    
    
    
    G------------------------|--------------------------|---------------------------
    D------------------------|--------------------------|---------------------------
    A------------------------|--------------------------|---------------------------
    E---------2--------3-----|--1--------2--------3-----|--1-----2-----3-----1------
    
    
    2:05
    G---------------------------------------|-----------------------------|---------
    D---------------------------------------|-----------------1--2--3-----|---------
    A---------------------------------------|--3--3-----3--3--------------|--3------
    E------2-----3-----1--2--3--1--2--3-----|-----------------------------|---------
    
    
    
    G---------------------------|-----5--------------|------------------------------
    D---------------------------|--------5--6--3--5--|--------5-----------5---------
    A---3-----3--3--2--1--------|--3-----------------|------------------------------
    E---------------------3-----|--------------------|--3--3--------3--3------------
    
    
    
    G---|-----5--------------|--------------------|--------------------|------------
    D---|--------5--6--3--5--|-----3--------------|-----------3--5--6--|------------
    A---|--3-----------------|--6-----5-----------|--3--5--6-----------|------------
    E---|--------------------|-----------3--3--3--|--------------------|--3--3------
    
    
    
    G-----------|------17--15--------------|-------------------------|--------------
    D---5-----5/|--------------19--15--17--|--------------18--18--17⁄|--------------
    A-----------|--15----------------------|--18--18--17-------------|--3--3--------
    E------3----|--------------------------|-------------------------|--------------
    
    
    
    G---------------|--------------------------|-----5--3-----------|---------------
    D------1--3--4--|--------5-----------5-----|-----------7--3--5--|---------------
    A---3-----------|--------------------------|--3-----------------|--6--6--5------
    E---------------|--3-----------3-----------|--------------------|---------------
    
    
    
    G------------|-----5--3-----------|--------------------|------------------------
    D---6--6--5--|-----------5--5--5--|--5--5--5--5--5--5--|------------------------
    A------------|--3-----------------|--------------------|--1h3--3--3--1h3--3-----
    E------------|--------------------|--------------------|------------------------
    
    
    
    G------|----------------------|------------------------|------------------------
    D------|-------------1--1--3--|------------------------|------------------------
    A---3--|--1h3--3--3-----------|--1h3--3--3--1h3--3--3--|--1h3--3--3-------------
    E------|----------------------|------------------------|-------------3--3--3----
    
    
    
    G---|--------------------------|-----------------------|------------------------
    D---|--------------------------|--------------------3--|------------------------
    A---|--3--3--3-----5--5--5-----|--6--6--6-----5--5-----|--1h3--3--3--1h3--3-----
    E---|--------------------------|-----------------------|------------------------
    
    
    
    G------|----------------------|-------------------------------------------------
    D------|----------------------|--------------------------12--12--12--12--12-----
    A---3--|--1h3--3--3--1--------|--10--10--10--10--10--10-------------------------
    E------|----------------3--1--|-------------------------------------------------
    
    
    
    G-------|--12--12--12--12--12--12--------------|--------------------------------
    D---12--|--------------------------12--12--12--|------------------------12------
    A-------|--------------------------------------|--10--10-----10--10-------------
    E-------|--------------------------------------|--------------------------------
    
    
    
    G---------------------|--12--12-----12--12-----12----------|--------------------
    D---12-----12--12-----|----------------------------12--12--|--10-----10---------
    A---------------------|------------------------------------|-------------13-----
    E---------------------|------------------------------------|--------------------
    
    
    
    G---10-----|------10-----------------|-----------------10-----|------10---------
    D----------|-------------------------|--10-----10-------------|-----------------
    A----------|--12---------11--11--10--|-------------13---------|--12-------------
    E----------|-------------------------|------------------------|-----------------
    
    
    
    G---------------|-----------------10-----|------10-----------------|------------
    D---------------|--10-----10-------------|-------------------------|--10--------
    A---11--11--10--|-------------13---------|--12---------11--11--10--|------------
    E---------------|------------------------|-------------------------|------------
    
    
    
    G------------------|-------------------------|-----------------|----------------
    D---10-------------|-------------------------|-----------1--3--|----------------
    A-------13-----13--|--12-----12--11--11--10--|--3-----3--------|--3-----1-------
    E------------------|-------------------------|-----------------|-----------3----
    
    
    
    G------|-----5--------------|--------------------------|-----------------|------
    D------|--------5--6--3--5--|--------5-----------5-----|--------1--3--1--|------
    A------|--3-----------------|--------------------------|--3--------------|------
    E---1--|--------------------|--3-----------3-----------|-----------------|------
    
    
    
    G------------------|--------------------|----------------------|--------17------
    D------------------|--------1--3--1-----|--5--(3)h5--(3)h5--5--|----------------
    A---3-----1--------|--3-----------------|----------------------|/15-------------
    E------------3--1--|--------------------|----------------------|----------------
    
    
    
    G---15------|---------------------|--5-----3-----------|------------------------
    D-------19--|--15--17-------------|-----------7-----6--|--5-----3---------------
    A-----------|----------18-----17--|--------------------|-----------6-----5------
    E-----------|---------------------|--------------------|------------------------
    
    
    
    G---|--------------------|-----------------|------------------------------------
    D---|-----------1-----3--|-----------------|-----------1-----3--(3)h5--(3)------
    A---|--3-----3-----------|--3-----1--------|--3-----3---------------------------
    E---|--------------------|-----------4--3--|------------------------------------
    
    
    
    G-------------|--------5--3-----|--------------------|--------------------|-----
    D---h5--5--5--|--------------7--|-----3--5-----------|-----------------3--|-----
    A-------------|--3--------------|-----------6-----5--|--3--3--6--5--5-----|-----
    E-------------|-----------------|--------------------|--------------------|-----
    
    
    
    G-----------------------|-------------15-----17p15/19-----17--15------|---------
    D---5--5--5--5--5--8/x--|---------17------------------------------15--|--17-----
    A-----------------------|--15-----------------------------------------|---------
    E-----------------------|---------------------------------------------|---------
    
    
    
    G------------------------------|--------------------|--------------------|------
    D---(15)h17--(15)h17--(15)h17--|------17-----17--17⁄|-----------1--3--1--|------
    A------------------------------|--------------------|--3-----3-----------|------
    E------------------------------|--15----------------|--------------------|------
    
    
    
    G---------------------|--------------------|--------------------------|---------
    D---------------------|-----------1-----3--|--(3)h5--(3)h5--(3)h5--5--|---------
    A---3-----3--1--------|--3-----3-----------|--------------------------|--3------
    E------------------3--|--------------------|--------------------------|---------
    
    
    3:31
    G---5--------------|--------------------|--------------------|------------------
    D------5--6--3--5--|-----3--------------|-----------3--5--6--|--5--5--5--5------
    A------------------|--6-----5-----------|--3--5--6-----------|------------------
    E------------------|-----------3--3--3--|--------------------|------------------
    
    
    
    G---------|--------------------|--------------------|--------------------|------
    D---5--5--|--5--5--5--5--5--5--|--5--5--5--3--------|-----------1--3--1--|------
    A---------|--------------------|--------------6--5--|--3-----3-----------|------
    E---------|--------------------|--------------------|--------------------|------
    
    
    
    G---------------------|--------------------|--------3--2-----5--|--------5------
    D---------------------|--------1--3-----4--|--5-----------------|---------------
    A---3-----1-----------|--3-----------------|--------------------|--3------------
    E------------3--1--3--|--------------------|--------------------|---------------
    
    
    
    G---3--------|--------------------|--------------------|------------------------
    D---------7--|--3-----5--------5--|-----------------3--|--5--(3)h5-----5--5-----
    A------------|-----------6--5-----|--3-----6--5--------|------------------------
    E------------|--------------------|--------------------|------------------------
    
    
    
    G-----|---------17--15---------|-----------------------|------------------------
    D---5/|--------------------19--|--15-----17------------|--------1--3-----4------
    A-----|--15--------------------|-------------18-----17⁄|--3---------------------
    E-----|------------------------|-----------------------|------------------------
    
    
    
    G---|-----------------------|--------5--3--------|--------------------|---------
    D---|--5-----------5--------|--------------7--3--|--5--5--3-----------|---------
    A---|-----------------------|--3--3--------------|-----------6--6--5--|--3------
    E---|--------3-----------3--|--------------------|--------------------|---------
    
    
    
    G------------------|-------------------|----------------------|-----------------
    D---------------3--|--5-----5--5-----5/|--10-----10--8-----8--|--7-----7--6-----
    A------6--5--------|-------------------|----------------------|-----------------
    E------------------|-------------------|----------------------|-----------------
    
    
    
    G---------|--------------------|--------------------|--------------------|------
    D------6--|--5-----5-----------|--------------------|-----------1-----3--|------
    A---------|-----------8-----8--|--6-----6--5-----5--|--3-----3-----------|------
    E---------|--------------------|--------------------|----------------…
  • Piano, Vocals, Sounds 0:50
    G---|-----------------------|-------------------|-------------------|--16⁄14----
    D---|-----------------------|---------11--------|---------16--------|-----------
    A---|-----------------------|--12---------------|--14---------------|-----------
    E---|-----------------------|-------------------|-------------------|-----------
    
    
    
    G----------------|--16⁄14----------------|--16⁄14----------------|--16p14-------
    D------12--------|---------14------------|---------14------------|--------------
    A----------------|-------------12--------|-------------12--------|--------------
    E----------------|-----------------------|-----------------------|--------------
    
    
    
    G---------------------|--16⁄14---------------|--16⁄14---------------------------
    D---16---------12-----|------------12--------|---------14-----------------------
    A-------14------------|----------------------|-------------12-------------------
    E---------------------|----------------------|----------------------------------
    
    
    Piano,…
  • E|--------------------|-0-------------|--------------------|---|
    B|-7-----------5H7P52-|-0-------2-5/7-|--7------------5-2--|-2-|
    G|-6------------------|-1-------------|--6-----------------|-2-|
    D|-4------------------|-2-------------|--7-----------------|-2-|
    A|-0------------------|-4-------------|--5-----------------|-0-|
    E|--------------------|---------------|--------------------|---|
    
    E|---------------|-0----------7-|-5---------------|------------|
    B|-7------5H7P52-|-0----------7-|-5-------7H10P75-|-7----------|
    G|-6-------------|-1----------7-|-4---------------|-6--------*-|
    D|-7-------------|-2----------6-|-4---------------|-7--------*-|
    A|-5-------------|-4----------7-|-5---------------|-5----------|
    E|---------------|--------------|-----------------|------------|
    
    E||--------------2--|---------------------------------|-----0-|
    B||--2-------0---2--|---------------------------------|-----2-|
    G||*-2-------2---2--|---6---6---6---6---6---6---6---6-|-----1-|
    D||*-2-------2---2--|-----4---4-------4-------3-------|---2---|
    A||--0-------0---0--|-----------------------------4---|-0-----|
    E||-----------------|-4-----------4-------4-----------|-------|
    
    E|--------7--9--12--9--------5-------|-------------||--0-------|
    B|-7--10--------9-----12--9--7-------|-5-----------||--0-------|
    G|-7------------9------------6-------|-7----------*||--2-------|
    D|-7------------9------------7-------|-7----6-----*||--2-----1-|
    A|-9------------11-----------5-------|-7-----------||--0-------|
    E|-7------------9--------------------|-------------||--2-------|…
  • e||-10--12--14--12--|
    B||-0---0---0---0---|
    G||-----------------|
    D||-----------------|
    A||-----------------|
    E||-----------------|
    
    e||-----------------|-----------------|--------------------------|
    B||-12----------8---|-7-----------10--|-12----------8---7---10---|
    G||-----------------|-----------------6--------------------------|
    D||-----------------|-----------------8--------------------------|
    A||-----------------|-----------------|--------------------------|
    E||-----------------|-----------------|--------------------------|
    
    e||---------------12|-10------------12|-14--------------|
    B||-12-------10-12--|----------10-12--|-----------------|
    G||-----------------|-----------------|-----------------|
    D||-----------------|-----------------|-----------------|
    A||-----------------|-----------------|-----------------|
    E||-----------------|-----------------|-----------------|
    
    Verse…
  • 0:00
    G---||------------------------------|---------------------------||--------------
    D---||*-----------------------5--5--|--------------------5--5--*||--------------
    A---||*--3-----3--------3-----------|--3-----3--------3--------*||--3-----3-----
    E---||------------------------------|---------------------------||--------------
    
    
    
    G---------------------|--------------------------|------------------------------
    D---------------5--5--|--------------------5--5--|-----------------------6------
    A---------3-----------|--3-----3--------3--------|--3-----3--------3------------
    E---------------------|--------------------------|------------------------------
    
    
    
    G------|--------------------------||------------------------------|-------------
    D---6--|--------------------3--3--||*-----------------------5--5--|-------------
    A------|--3-----3--------3--------||*--3-----3--------3-----------|--3-----3----
    E------|--------------------------||------------------------------|-------------
    
    
    0:29
    G-------------------||-----------------------------|----------------------------
    D------------5--5--*||-----------------------5--5--|--------------------5--5----
    A---------3--------*||--3-----3--------3-----------|--3-----3--------3----------
    E-------------------||-----------------------------|----------------------------
    
    
    
    G---|-----------------------------|-----------------------------|---------------
    D---|-----------------------5--5--|-----------------------5--5--|--6-----6------
    A---|--3-----3--------3-----------|--3-----3--------3--3--------|---------------
    E---|-----------------------------|-----------------------------|---------------
    
    
    
    G------------------|--------------------------||--------------------------------
    D---------6-----6--|--5-----5--------5-----5--||*-----------------------5--5----
    A------------------|--------------------------||*--3-----3--------3-------------
    E------------------|--------------------------||--------------------------------
    
    
    
    G---|---------------------------||-----------------------------|----------------
    D---|--------------------5--5--*||-----------------------5--5--|----------------
    A---|--3-----3--------3--------*||--3-----3--------3-----------|--3-----3-------
    E---|---------------------------||-----------------------------|----------------
    
    
    
    G------------------|--------------------------|--------------------------|------
    D------------5--5--|--6-----6--------6-----6--|--5-----5--------5-----5--|------
    A------3--3--------|--------------------------|--------------------------|------
    E------------------|--------------------------|--------------------------|------
    
    
    1:08
    G---------------------|----------------------|----------------------|-----------
    D---3--------3-----3--|--5-------------------|----------------------|-----------
    A---------------------|----------------------|--------5-----6-------|-----------
    E---------------------|-----------3--------3/|--8-----------------8⁄|--3--------
    
    
    
    G---------------|--------------------------|--------------------|---------------
    D---------------|-----------6--5-----3-----|--5-----------------|---------------
    A---------------|-----------------------6--|--------------------|---------------
    E------3-----3--|--4-----------------------|-----------3--------|--1------------
    
    
    
    G------------|--------------------|-----------------------------|---------------
    D------------|--------------------|-----------------------5--5--|---------------
    A------------|--------3/10--------|--3-----3--------3-----------|--3-----3------
    E---1--------|--3-----------------|-----------------------------|---------------
    
    
    
    G------------------|----------------------|--------------------|----------------
    D------------5-----|----------------------|--------------------|-----------6----
    A---------3--------|--3-----5-----6-------|--------------------|----------------
    E------------------|--------------------8⁄|--3--------3-----3--|--4-------------
    
    
    
    G---------------|--------------------|-----------------|------------------------
    D---5-----3-----|--5-----------------|-----------------|------------------------
    A------------6--|--------------------|-----------------|--------3/10-----10-----
    E---------------|-----------3--------|--1-----------1--|--3---------------------
    
    
    1:43
    G---||------------------------------|---------------------------||--||----------
    D---||*-----------------------5--5--|--------------------5--5--*||--||*---------
    A---||*--3-----3--------3-----------|--3-----3--------3--------*||--||*--3------
    E---||------------------------------|---------------------------||--||----------
    
    
    
    G---------------------------|--------------------------|------------------------
    D---------------------5--5--|--------------------5--5--|------------------------
    A------3--------3-----------|--3-----3--------3--------|--3-----3--------3------
    E---------------------------|--------------------------|------------------------
    
    
    
    G------------|---------------------------||--||---------------------------------
    D------6--6--|--------------------3--3--*||--||*-----------------------5--5-----
    A------------|--3-----3--------3--------*||--||*--3-----3--------3--------------
    E------------|---------------------------||--||---------------------------------
    
    
    2:22
    G---|---------------------------||-----------------------------|----------------
    D---|--------------------5--5--*||-----------------------5--5--|----------------
    A---|--3-----3--------3--------*||--3-----3--------3-----------|--3-----3-------
    E---|---------------------------||-----------------------------|----------------
    
    
    
    G---------------|-----------------------------|---------------------------------
    D---------5--5--|-----------------------5--5--|-----------------------5--5------
    A------3--------|--3-----3--------3-----------|--3-----3--------3--3------------
    E---------------|-----------------------------|---------------------------------
    
    
    
    G---|--------------------------|--------------------------||--------------------
    D---|--6-----6--------6-----6--|--5-----5--------5-----5--||*-------------------
    A---|--------------------------|--------------------------||*--3-----3----------
    E---|--------------------------|--------------------------||--------------------
    
    
    
    G---------------|---------------------------||-----------------------------|----
    D---------5--5--|--------------------5--5--*||-----------------------5--5--|----
    A---3-----------|--3-----3--------3--------*||--3-----3--------3-----------|----
    E---------------|---------------------------||-----------------------------|----
    
    
    
    G------------------------------|--------------------------|---------------------
    D------------------------5--5--|--6-----6--------6-----6--|--5-----5------------
    A---3-----3--------3--3--------|--------------------------|---------------------
    E------------------------------|--------------------------|---------------------
    
    
    3:02
    G------------|--------------------|----------------------|----------------------
    D---5-----5--|--3--------3-----3--|--5-------------------|----------------------
    A------------|--------------------|----------------------|--------5-----6-------
    E------------|--------------------|-----------3--------3/|--8-------------------
    
    
    
    G-----|--------------------|--------------------------|--------------------|----
    D-----|--------------------|-----------6--5-----3-----|--5-----------------|----
    A-----|--------------------|-----------------------6--|--------------------|----
    E---8⁄|--3--------3-----3--|--4-----------------------|-----------3--------|----
    
    
    
    G---------------------|--------------------------|------------------------------
    D---------------------|--------------------------|-----------------------5------
    A---------------------|--------3/10--10--10--10--|--3-----3--------3------------
    E---1--------1-----1--|--3-----------------------|------------------------------
    
    
    
    G------|-----------------------------|----------------------|-------------------
    D---5--|-----------------------5-----|----------------------|-------------------
    A------|--3-----3--------3--3--------|--3-----5-----6-------|-------------------
    E------|-----------------------------|--------------------8⁄|--3--------3-------
    
    
    
    G------|--------------------------|--------------------|------------------------
    D------|-----------6--5-----3-----|--5-----------------|------------------------
    A------|-----------------------6--|--------------------|------------------------
    E---3--|--4-----------------------|-----------3--------|--1--------1-----1------
    
    
    
    G---|---------------------|-----------------------------|-----------------------
    D---|---------------------|-----------------------5--5--|-----------------------
    A---|--------3/10-----10--|--3-----3--------3-----------|--3-----3--------3-----
    E---|--3------------------|-----------------------------|-----------------------
    
    
    3:46
    G---------|-----------------------------|-----------------------------||--------
    D---5--5--|-----------------------5--5--|-----------------------5--5--||*-------
    A---------|--3-----3--------3-----------|--3-----3--------3--3--------||*--3----
    E---------|-----------------------------|-----------------------------||--------
    
    
    
    G---------------------------|--------------------------|------------------------
    D---------------------5--5--|--------------------5--5--|------------------------
    A------3--------3-----------|--3-----3--------3--------|--3-----3--------3------
    E---------------------------|--------------------------|------------------------
    
    
    2x
    G------------|---------------------------||-----------------||------------------
    D------6--6--|--------------------3-----*||-----------------||------------------
    A------------|--3-----3--------3--------*||--3--------------||------------------
    E------------|---------------------------||-----------------||------------------…
  • |-------------------------------3~-------------------------3----------3---|
    |-----------------------------0----------3~------------2---------2--------|
    |------5-------5---------------------2/4-----2h4p2p0-----2-----2----2-----|
    |----4-----4--2-----------------------------------------------------------|
    |--2-----3---0----------x-x-x---------------------------------------------|
    |---------------2b3~----3-2-0---------------------------------------------|…
  • Соло:
     4/4
      Em               C7               Eb      C7       G
    E|0---------------|----------------|----------------|---|
    B|0---------------|1---------------|4-------5-------|8--|
    G|0---------------|3---------------|3-------3-------|7--|
    D|2---------------|2---------------|5-------5-------|9--|
    A|2---------------|3---------------|6-------3-------|10-|
    E|0---------------|----------------|----------------|---|…
  • E C7+ G7+ Am B7
    Said the straight man to the late man where have you been
    E C7+ G7+ Am B7
    I've been here and I've been there and I've been in between
    E G7+ E G7+
    I talk to the wind my words are all carried away
    E G7+ Am…
  • I
    If I only could deceive you
    
    Forgetting the game
    I
    Every time I try to leave you
    
    You laugh just the same
    II
    'Cause my wheels never touch the road
    
    And the jumble of lies we told
    
    Just returns to my back to weigh me down...
    I
    We…
  • 0:00
    G---|----------------------|----------------------|----------------------|------
    D---|----------------------|-------------5--------|----------------------|------
    A---|-------------7--------|--7-----5h7-----------|-------------5--------|------
    E---|--7--0--5h7-----------|-----0----------------|--7--0--5h7-----------|------
    
    
    
    G-----------------------|------------------------------|------------------------
    D--------------5--------|------------------------------|------------------------
    A---7-----5h7-----------|-------------5----------------|-------------5----------
    E------0----------------|--7--0--5h7--------0/5-----7--|--0--0--5h7-------------
    
    
    
    G---|------------------------------|----------------------|---------------------
    D---|-------------5----------------|----------------------|----------------7----
    A---|--------5h7-------------------|-------------5--------|--------9--7h9-------
    E---|--5--5-------------0/5-----7--|--0--0--5h7-----------|--7--7---------------
    
    
    0:34
    G-----------------|----------------------|----------------------|---------------
    D-----------------|----------------------|-------------5--------|---------------
    A-----------------|-------------5--------|--7-----5h7-----------|--7------------
    E------0/5-----7--|--0--0--5h7-----------|-----0----------------|-----0--5------
    
    
    
    G------------------------|-------------------------|----------------------------
    D------------------------|-------------------------|-------------5--------------
    A-------5----------------|-----7----------5--------|--------5h7-----------------
    E---h7--------0/5-----7--|--0-----0--5h7-----------|--5--5-------------0/5------
    
    
    
    G---------|----------------------|---------------------------------|------------
    D---------|----------------------|----------------7----------------|------------
    A---------|-------------5--------|--------9--7h9-------------------|------------
    E------7--|--0--0--5h7-----------|--7--7----------------0/5-----7--|--0--0------
    
    
    0:57
    G-----------------|----------------------------|--------------------------------
    D-----------------|----------------5--------5--|--4-----------------------4-----
    A--------5--------|--7--------7p5--------------|--------------------------------
    E---5h7-----------|-----5--5-------------------|-----2-----2--------2-----------
    
    
    
    G---|-----------------------------|--------------------------------|------------
    D---|--2-----------------------5--|--4-----------------------------|------------
    A---|-----------------------------|-----------------------------3--|--2---------
    E---|-----0-----0--------0--------|-----2-----2-----2-----5--------|------------
    
    
    
    G------------|----------------------|----------------------|--------------------
    D------------|----------------------|-------------5--------|--------------------
    A------------|-------------5--------|--7-----5h7-----------|--------------------
    E------------|--7--0--5h7-----------|-----0----------------|--5--5--5--3--3-----
    
    
    
    G------|----------------------|-----------------|----------------------|--------
    D------|----------------------|-----------------|----------------------|--------
    A------|-------------5--------|-----------------|-------------5--------|--------
    E---3--|--0--0--5h7-----------|--5--5--5--3-----|--0--0--5h7-----------|--5-----
    
    
    
    G------------|----------------------|--------------------|----------------------
    D------------|-------------5--------|--------------------|----------------------
    A------------|--------5h7-----------|--------------------|-------------5--------
    E------7-----|--5--5----------------|--5--5-----3-----3--|--0--0--5h7-----------
    
    
    1:39
    G------|-----------------|-----------------|----------------------|-------------
    D------|-----------------|-----------------|----------------------|-------------
    A------|-----------------|-----------------|-------------5--------|--7-----5----
    E------|--7--------------|--5--------------|--7--0--5h7-----------|-----0-------
    
    
    
    G-------------------|-----------------------------|-----------------------------
    D-------5--------5--|--4-----------------------4--|--2--------------------------
    A---h7--------------|-----------------------------|-----------------------------
    E-------------------|-----2-----2--------2--------|-----0-----0--------0--------
    
    
    
    G------|--------------------------------|-----------------|---------------------
    D---5--|--4-----------------------------|-----------------|---------------------
    A------|-----------------------------3--|--2--------------|------------5--------
    E------|-----2-----2-----2-----5--------|-----------------|--7⁄0--5h7-----------
    
    
    2:02
    G------|----------------------|------------------------------|------------------
    D------|-------------5--------|------------------------------|------------------
    A------|--7-----5h7-----------|--7----------5----------------|-------------5----
    E------|-----0----------------|-----0--5h7--------0/5-----7--|--0--0--5h7-------
    
    
    
    G---------|------------------------------|----------------------|---------------
    D---------|-------------5----------------|----------------------|---------------
    A---------|--------5h7-------------------|-------------5--------|---------------
    E---------|--5--5-------------0/5-----7--|--0--0--5h7-----------|--7--7--7------
    
    
    
    G---------------------------|----------------------|----------------------|-----
    D-----------7---------------|----------------------|-------------5--------|-----
    A---9--7h9------------------|-------------5--------|--7-----5h7-----------|-----
    E-----------------0/5-----7⁄|--0--0--5h7-----------|-----0----------------|-----
    
    
    
    G------------------|----------------------|-----------------|-------------------
    D------------------|----------------------|-----------------|-------------------
    A------------------|-------------5--------|-----------------|-------------5-----
    E---5--5-----3-----|--0--0--5h7-----------|--5--5-----3-----|--0--0--5h7--------
    
    
    
    G---------|----------------|----------------------|--------------------|--------
    D---------|----------------|-------------5--------|--------------------|--------
    A---------|----------------|--------5h7-----------|--------------------|--------
    E---------|--5--5-----7⁄---|--5--5----------------|--5--5--5--3--3--3--|--0-----
    
    
    2:46
    G--------------------|-----------------|-----------------|----------------------
    D--------------------|-----------------|-----------------|----------------------
    A-----------5--------|-----------------|-----------------|----------------5-----
    E---0--5h7-----------|--7--------------|--5-----------5--|--7-----0--5h7--------
    
    
    
    G------------------|----------------------|--------------------|----------------
    D------------------|----------------------|--------------------|----------------
    A------------------|-------------5--------|--------------------|----------------
    E---------7-----5--|-----0--5h7-----------|--5--5--5--3--3--3--|--0--0--5h7-----
    
    
    
    G------------|-------------------|---------------------|------------------------
    D------------|-------------------|-------------5/------|------------------------
    A---5--------|-------------------|--------5h7----------|------------------------
    E------------|--5------/7--------|--5--5---------------|--12--12--12--12--12----
    
    
    
    G-------|----------------------|-----------------|--------------------|---------
    D-------|----------------------|-----------------|--------------------|---------
    A-------|-------------5--------|-----------------|--------------------|---------
    E---12--|--12⁄0--5h7-----------|--7--------------|--5--------------5--|--7------
    
    
    
    G--------------------------------|-------------------------|--------------------
    D--------------------------------|-------------------------|-----7--------9-----
    A--------------5-----------------|----------------5--------|--------------------
    E------0--5h7-----------5h6p5--7p|--6-----0--5h7-----------|--5-----5--7--------
    
    
    
    G------|----------------------|--------------------|--------------------|-------
    D------|----------------------|--------------------|--------------------|-------
    A------|-------------5--------|-----7--------------|--------------------|-------
    E---7--|--0--0--5h7-----------|--5-----5--7--7--7--|--5-----5--7-----7--|--5----
    
    
    
    G------------------|--------------------|----------------------|----------------
    D---------5--------|--------------------|----------------------|----------------
    A------------------|--------------------|-------------5--------|----------------
    E------5-----------|--5--5--5--3--3--3--|--0--0--5h7-----------|--7-------------
    
    
    3:33
    G------|-------------------------------|-------------------------------|--------
    D------|-------------------------------|-------------------------------|--------
    A------|-------------------------------|-------------------5-----------|--------
    E------|--5-----------5/7⁄5⁄3/5-----5--|--7-----x-----5h7-----------5--|--7-----
    
    
    
    G-----------------------------|--------------------|----------------------|-----
    D-----------------------------|--------------------|----------------------|-----
    A--------------5--------------|--------------------|-------------5--------|-----
    E------0--5h7-----------0--0--|--5--5-----3-----3--|--0--0--5h7-----------|-----
    
    
    
    G----------------------------------------------|--------------------|-----------
    D----------------------------5-----7-----5-----|--------------------|-----------
    A---------7-----5-----5h6h7-----------------7--|--------------------|-----------
    E---5------------------------------------------|--5--5--5--3--3--3--|--0--0-----
    
    
    
    G-----------------|-----------------|-----------------||------------------------
    D-----------------|-----------------|-----------------||*-----------------------
    A--------5--------|-----------------|-----------------||*----------------5------
    E---5h7-----------|--7--------------|--5-----------5--||---7-----0--5h7---------
    
    
    Repeat…
  • ЧАСТЬ 1
    
    гитара
    E|-------------------------------------------------------------|
    B|-------------------------------------------------------------|
    G|--3--x--x--3--x--x--3--x--3--x--3--x--x--3--x--x--3--x--3--x-|
    D|--3--x--x--3--x--x--3--x--3--x--3--x--x--3--x--x--3--x--3--x-|
    A|--3--x--x--3--x--x--3--x--3--x--3--x--x--3--x--x--3--x--3--x-|
    E|-------------------------------------------------------------|
    
    бас-гитара
    G|-------------------------------------------------------------|
    D|--------------------------------3--------3--------3-----3----|
    A|-------------------------------------------------------------|
    E|-----------------------------------3--3-----3--3-----3-----3-|
    
    гитара
    E|-------------------------------------------------------------|
    B|-------------------------------------------------------------|
    G|-3--x--x--3--x--x--3--x--3--x---------------------3--x--x--3-|
    D|-3--x--x--3--x--x--3--x--3--x------6-----6-----5--3--x--x--3-|
    A|-3--x--x--3--x--x--3--x--3--x----5-----5----4-----3--x--x--3-|
    E|-------------------------------3-----3-----------------------|
    
    бас…
  • ритм 4/4:
    
    
    Бас:
    
     |Bb/D            |Bb/D            |A/C
     |--------7-------|----------7-----|--------7-------|
     |0---0-----------|0---0-----------|0---0-----------|
     |----------------|----------------|----------------|…
  • Tunning: D A D G B E (Dropped D)
    The song is in 6/4
    
    |--------------------------|--------------------------|
    |-------0------------------|-------0-----------2------|
    |-------------------3------|--------------------------|
    |-----4---4-------4---4----|-----4---4-------4---4----|
    |---1-------1---2-------2--|---1-------1---2-------2--|
    |-1-----------1------------|-1-----------0------------|
    
    |--------------------------|--------------------------|
    |-------0------------------|-------0------------------|
    |-------------------3------|-----------------------1--|
    |-----4---4-------4---4----|-----4---4-------4---0----|
    |---1-------1---2-------2--|---1-------1---2----------|
    |-1-----------1------------|-1-----------0-----3------|
    
    |--------------------------|--------------------------|
    |-------3-----------2------|-------3------------------|
    |-----1---1-------1---1----|-----1---1-------2-1------|
    |---------------0-------0--|---------------0----------|
    |---4-------4--------------|---4-------4--------------|
    |-4-----------4------------|-4-----------3------------|
    
    |--------------------------|--------------------------|
    |-------0------------------|-------0-----------2------|
    |-------------------3------|--------------------------|
    |-----4---4-------4---4----|-----4---4-------4---4----|
    |---1-------1---2-------2--|---1-------1---2-------2--|
    |-1-----------1------------|-1-----------0------------|
    
    |--------------------------|--------------------------|
    |-------0------------------|-------0------------------|
    |-------------------3------|-----------------------1--|
    |-----4---4-------4---4----|-----4---4-------4---0----|
    |---1-------1---2-------2--|---1-------1---2----------|
    |-1-----------1------------|-1-----------0-----3------|
    
    |--------------------------|-------------------0------|
    |-------3-----------2------|-------3------------------|
    |-----1---1-------1---1----|-----1---1-------2---2----|
    |---------------0-------0--|---------------0-------0--|
    |---4-------4--------------|---4-------4--------------|
    |-4-----------4------------|-4-----------3------------|
    
    |--------------------------|--------------------------|
    |-------3-----------2------|-------3------------------|
    |-----1---1-------1---1----|-----1---1-------2-----3--|
    |---------------0-------0--|---------------0-----2----|
    |---4-------4--------------|---4-------4--------------|
    |-4-----------4------------|-4-----------3-----5------|
    
    |-------0------------------|-------0------------------|
    |-----0---0-------0-4-0----|-----0---0-------------2--|
    |--------------------------|-----------------3---0----|
    |---1-------1---2-------2--|---1-------1---2----------|
    |--------------------------|-------------------1------|
    |-6-----------6------------|-6-----------5------------|
    
    
    |-------3-----------2------|-------3-----------5------|
    |-----3---3-------3---3----|-----3---3-------3---3----|
    |---------------0-------0--|---------------0-------0--|
    |---4-------4--------------|---4-------4--------------|
    |-2-----------2------------|-2-----------1------------|
    |--------------------------|--------------------------|
    
    |-------3-----------2------|-------3------------------|
    |-----3---3-------3---3----|-----3---3-------3-----2--|
    |---------------0-------0--|---------------0----------|
    |---4-------4--------------|---4-------4--------------|
    |-2-----------2------------|-2-----------1------------|
    |--------------------------|--------------------------|…
  • Em
    |---------------------------------------------------------------------------|
    |---------------------------------------------------------------------------|
    |---------------------------------------------------------------------------|
    |---------------------------------------------------------------------------|
    |--9~--5-7------9~--5-7~---5-7-9--7-5------9~--5-7------9~--5-7-----9--7-5--|
    |----------7~-------------------------7~-----------7~-----------7~----------|…
  • |---------------------------------------------------------|
    |---------------------------------------------------------|
    |-----7-----7---------7-----7---------7-----7---------5---|
    |---------------------------------------------------4-----|
    |---9-----9-----9---9-----9-----9---9-----9-----9---------|
    |-7-----7-----7---6-----6-----6---5-----5-----5---4-------|
    
    |---------------------------------------------------------|
    |---------------------------------------------------------|
    |-----5-----5---------5-----5---------5-----5---------3---|
    |---------------------------------------------------2-----|
    |---7-----7-----7---7-----7-----7---7-----7-----7---------|
    |-5-----5-----5---4-----4-----4---3-----3-----3---2-------|
    "tragedys…
  • This is the 7/8 guitar part that Belew plays during the singing:
    
    ----------------!----------------!-- ----------------!---------------!
    ----------2-----!----------2-----!-- ----------2-----!---------2-----!
    --2---4-----4---!--2---4-----4---!-…
  • 1 2 3 4 1 2 3 4
    --------------|--------------|
    T-2----2------|-2----2-------| 1st verse, repeated 4 times
    A-3----3------|-3----3-------| 2nd verse, repeated 3 times
    B-3----2------|-1----2-------|
    --------------|--------------|
    --------------|--------------|
    
    
    1…
  • -------------------------------------------------------
    -------------------------------------------------------
    4--2--0-----2--0-----------0---------------------------
    ---------4--------4--0--2-----2------------------------
    -------------------------------------------------------
    -------------------------------------------------------
    Houses…
  • Verse:
    G|--------14-12----|
    D|--------------14-|
    A|-----------------|
    E|--5--8-----------| (x47)
    
    
    G|---------------|
    D|--------7-5----|
    A|------------7--|
    E|--5--8---------| (x36)
    
    
    Break:
    G|-------|
    D|-------|
    A|-------|
    E|--0~---|
    
    G|-------10-9---|
    D|--------------|
    A|--------------|
    E|-----------0--|
    
    
    Verse:
    G|-----------------------------------------------------------------------------|
    D|------------5--------------5--------------5---7-------------------------5----|
    A|-------5-7------------5-7------------5-7------------5--------------5-7-------|
    E|-5--8-----------5--8-----------5--8--------------8----0--3---5--8------------|
    
    G|----------------------------------------------------------7------------------|
    D|------------57----------------------------575------------5-------------------|
    A|-------5-7------------5--------------5-7------------5-7------------5------3--|
    E|-5--8-----------5--8----0----3-5--8-----------5--8-----------5--8----0--35---|
    
    G|-----------------------------------------------------------------------------|
    D|------------------------------------------577-7----------577-7----------5777-|
    A|-------5------3-------5------3-------5-7------------5-7------------5-7-------|
    E|-5--8----0--35--5--8----0--35--5--8--------------8--------------8------------|
    
    G|------------575-----------575------------------------------------------------|
    D|-------5-7------------5-7----75-----------5-7x-------------------------5-7x--|
    A|-5--8-----------5--8-----------------5-7------------5------3-------5-7-------|
    E|-------------------------------5--8-----------5--8----0--35--5--8------------|
    
    G|------------7----------------------------------------------------------------|
    D|-----------5-57-------------5--------------5--------------5--------------5---|
    A|-------5-7-----5------5-7------------5-7------------5-7------------5-7-------|
    E|-5--8-----------5--8-----------5--8-----------5--8-----------5--8------------|
    
    G|----------------------------7------------------------------------------------|
    D|-------------5-------------5-5------------------------------------------577--|
    A|--------5-7-----------5-7------------5------3-------5------3-------5-7-------|
    E|--5--8----------5--8-----------5--8----0--35--5--8----0--35--5--8------------|
    
    G|--------------------------------------------------------------|
    D|-------------577---------------------------577----------------|
    A|--------5-7------------5------3-------5-7------------5------3-|
    E|--5--8-----------5--8----0--35--5--8-----------5--8----0--35--|
    
    
    Melltron…
  • ---------------------------------|---------------------------------|
    ---------------------------------|---------------------------------|
    ---------------------------------|---------------------------------|
    x5-------7-------5---7---5---7---|-5-------7-------5---------------|
    ---6-4-6---6-4-6---6---6---6---6-|---6-4-6---6-4-6---6-4-------4-6-|
    ---------------------------------|-----------------------5-3-5-----|…
  • 1 2 3 4
    E----------------------------------------------------|
    B-T--------------------------------------------------|
    G-A--------------------------------------------------| Play eight times
    D-B--------------------------------------------------|…
  • Intro/Verse (E minor) (Play the first bar only once,
    then repeat the second measure)
    Q. S S E E E E Q E. S E E E E
    |------------------|--------------------|
    |----------1h2-----|---------1h2--------|
    |--------------3s2-|-------------3s2----|
    |--------x---------|-2--x--x------------|
    
    Pre-verse…
  • Intro:
    
    G:--------------------------------
    D:---2---3-----------4---5--------
    A:------------2---3-----------6---
    E:--------------------------------
    
    Pickup:
    
    G:---------------------
    D:---------------------
    A:---------------------
    E:---0---1---2---3-----
    
    A…
  • G C Bm Bm/F# Em Em7
    Tears of joy at the birth of a brother
    C Bm Am/A Am/B Am/C Am/D Am/E
    Never alone from that time
    Sixteen Years through knife fights and danger
    Strangely why his life not mine
    
    Bm Am9 G G
    --7--7|--7--7|--5--7|…
  • |Intro
    ----------------------------|
    --13------15-13-11-13-11-10-|
    ||12------14------15--------------------------------|
    ----------------------------|
    ----------------------------|
    ----------------------------|
    |
    |
    --15------|
    15--------|
    ||12------14------15--------------|
    ----------|
    ----------|
    ----------|
    
    
    |Main…
Наверх