Аккорды Kings Of Leon - Mustang

Добавлено: @romashka
Дата добавления: 30 Марта 2024г.
Рейтинг:
0.0
Просмотров: 79
E-riff during Verse 1
e|----------------------|----------------------|----------------------|----------------------|  | 
B|----------------------|----------------------|----------------------|----------------------|  |
G|----------------------|----------------------|----------------------|----------------------|  |
D|----------------------|----------------------|----------------------|----------------------|  |
A|----------------------|----------------------|----------------------|----------------------|  |
E|-0-0-0-12-12-12-12-12-|-0-0-0-12-12-12-12-12-|-0-0-0-12-12-12-12-12-|-0-0-0-12-12-12-12-12-|  |
                                                                                                | x2  
e|----------------------|----------------------|----------------------|----------------------|  |
B|----------------------|----------------------|----------------------|----------------------|  |
G|----------------------|----------------------|----------------------|----------------------|  |
D|----------------------|----------------------|----------------------|----------------------|  |
A|----------------------|----------------------|----------------------|-------10-10-10-10-10-|  |
E|-0-0-0-12-12-12-12-12-|-0-0-0-12-12-12-12-12-|-0-0-0-12-12-12-12-12-|-0-0-0----------------|  |


E-riff during Verse 2
e|---------------------------------------------|----------------------------------------------|
B|---------------------------------------------|----------------------------------------------|
G|---------------------------------------------|----------------------------------------------| x2
D|---------------------------------------------|----------------------------------------------|
A|-------9-------------------------------------|-------9--------------------------------------|
E|--0-12-----12-10---9-10-9-10-9-10-9-10-9-----|--0-12-----12-10---9-10-9-10-9-10-9-10-12-----|

[Verse 1]
E
  If you're free tomorrow, don't make any plans (don't make any plans)
E
  We can go to Sylvan Park and kick over trash cans
E 
  Love is all around me, everywhere I turn
E
  Is that the smell of fall or the city burned?

[Chorus 1]
          E
There's a mustang in the city

And it's callin' me out
          C#m          
Are you a mustang or a kitty?

What are you all about?

[Verse 2]
E
  There's a golden globe in my office space
E
  A muscle magazine next to the toilet
C#m                           A                      E
    I'm getting big and strong just thinking about it (uh-uh)
C#m                    B                 A
    And I can feel the heat of the water rise

[Chorus 2]
              E
Oh, there's a mustang in the city

And it's callin' me out
          C#m
Are you a mustang or a kitty?

What are you all about?

[Verse 3]
E
  I saw 'em operating on a kid downstairs
E
  I could not be bothered to pretend to care
E
  I like to watch you eat in front of the camera
C#m                     B               A
    And there's a misty mornin' in your eye

[Chorus 3]
              E
Oh, there's a mustang in the city

And it's callin' me out
          C#m
Are you a mustang or a kitty?

What are you all about?

            E
It's just a mistake and a pity

It's drownin' the crowd
          C#m 
Are you a mustang or a kitty?
                      
A mustang or a kitty?

[Bridge]
E    C#m                      B                 A
         There was somethin' amiss in your apology

[Chorus 4]
              E
Oh, there's a mustang in the city

And it's callin' me out
          C#m
Are you a mustang or a kitty?

What are you all about?

       E
It's a mistake and a pity

Dragging me down
      C#m
You a mustang or a kitty?

A mustang or a kitty?  
Музыка - прекрасный способ стирания мыслей, плохих и не очень, самый лучший и самый давний (Мариам Петросян)
Мы стремимся к созданию контента, соответствующего всем нормам законодательства и уважающего интеллектуальную собственность. Мы также придаем большое значение тому, чтобы не задеть никого и не оскорбить чьи-либо чувства. Если у вас есть вопросы или претензии по размещенному материалу, пожалуйста, сообщите нам об этом.
Шрифт
-
0
+
Прокрутка
-
0
+
Стоп
Наверх