Аккорды Kings Of Leon - Wasted Time

Добавлено: @vitos
Дата добавления: 08 Июня 2016г.
Рейтинг:
0.0
Просмотров: 423
Standard Tuning

INTRO

e|--------------------------------------------------------------------------
B|--------------------------------------------------------------------------
G|--------------------------------------------------------------------------
D|---2-----2--------------x4------------------------------------------------
A|--------------------------------------------------------------------------
E|-0----0------4s5----------------------------------------------------------

NO GUITAR IN VERSE 1


CHORUS
e|-----------------------------------------------------0--------------------
B|-7----------------------7-----------------7---7---7--0--------------------
G|-7-6--------------------7-6---------------7-6-7-6-7--1--------------------
D|-7-7--------------------7-7---------------7-7-7-7-7--2--------------------
A|-5-7--------------------5-7---------------5-7-5-7-5--2--------------------
E|---5----------------------5-----------------5---5----0--------------------
      Her innocent smile       Runnin' free                Baby don't.....

e|------------------------0-------------------------------------------------
B|-2s3s2-0-2-0-2s3s2-0----0----------------2s3s2-0-2-0-2s3s2-0--------------
G|-2s3s2-0-2-0-2s3s2-0-2--1----------------2s3s2-0-2-0-2s3s2-0-2------------
D|---------------------2--2------------------------------------2------------
A|------------------------2-------------------------------------------------
E|------------------------0-------------------------------------------------
                             Baby don't....


VERSE 2
e|--------------------------------------------------------------------------
B|--------------------------------------------------------------------------
G|-1-1-1-1-4----------------------------------------------------------------
D|-2-2-2-2-5-x8-----------2---2--------X4-----------------------------------
A|-2-2-2-2-5---------------------4s5----------------------------------------
E|-0-0-0-0-3-----THEN---0---0-----------------------------------------------


CHORUS
e|-----------------------------------------------------0--------------------
B|-7----------------------7-----------------7---7---7--0--------------------
G|-7-6--------------------7-6---------------7-6-7-6-7--1--------------------
D|-7-7--------------------7-7---------------7-7-7-7-7--2--------------------
A|-5-7--------------------5-7---------------5-7-5-7-5--2--------------------
E|---5----------------------5-----------------5---5----0--------------------
      Her innocent smile       Runnin' free                Baby don't.....


e|------------------------0-------------------------------------------------
B|-2s3s2-0-2-0-2s3s2-0----0----------------2s3s2-0-2-0-2s3s2-0--------------
G|-2s3s2-0-2-0-2s3s2-0-2--1----------------2s3s2-0-2-0-2s3s2-0-2------------
D|---------------------2--2------------------------------------2------------
A|------------------------2-------------------------------------------------
E|------------------------0-------------------------------------------------
                             Baby don't....

INTERLUDE 1
e|--------------------------------------------------------------------------
B|---------------------------------2-2-2-2-2p0-------X4---------------------
G|---------------------------------2-2-2-2-2p0------------------------------
D|-0h2-2-5-0-0h2-5--X4----WAIT...-------------------------------------------
A|--------------------------------------------------------------------------
E|--------------------------------------------------------------------------
                                  RYTHM-CAN'T WORK OUT LEAD!


NO GUITAR FOR THE NEXT 'TIME ON MY IS WASTED TIME'


INTERLUDE 2
e|--------------------------------------------------------------------------
B|-2s3s2-0-2-0-2s3s2-0------------------------------------------------------
G|-2s3s2-0-2-0-2s3s2-0-2----------X4----------------------------------------
D|---------------------2----------------------------------------------------
A|--------------------------------------------------------------------------
E|--------------------------------------------------------------------------

THEN REPEAT CHORUS
e|-----------------------------------------------------0--------------------
B|-7----------------------7-----------------7---7---7--0--------------------
G|-7-6--------------------7-6---------------7-6-7-6-7--1--------------------
D|-7-7--------------------7-7---------------7-7-7-7-7--2--------------------
A|-5-7--------------------5-7---------------5-7-5-7-5--2--------------------
E|---5----------------------5-----------------5---5----0--------------------
      Her innocent smile       Runnin' free                Baby don't.....


e|------------------------0-------------------------------------------------
B|-2s3s2-0-2-0-2s3s2-0----0----------------2s3s2-0-2-0-2s3s2-0--------------
G|-2s3s2-0-2-0-2s3s2-0-2--1----------------2s3s2-0-2-0-2s3s2-0-2------------
D|---------------------2--2------------------------------------2------------
A|------------------------2-------------------------------------------------
E|------------------------0-------------------------------------------------
                             Baby don't....


REPEAT THIS LAST LINE TO THE END OF THE SONG.
Но если и музыка нас оставит, что будет тогда с нашим миром? (Гоголь)
Мы стремимся к созданию контента, соответствующего всем нормам законодательства и уважающего интеллектуальную собственность. Мы также придаем большое значение тому, чтобы не задеть никого и не оскорбить чьи-либо чувства. Если у вас есть вопросы или претензии по размещенному материалу, пожалуйста, сообщите нам об этом.
Шрифт
-
0
+
Прокрутка
-
0
+
Стоп
Наверх