Аккорды Контора - Северная музыка

Добавлено: @romashka
Дата добавления: 24 Ноября 2019г.
Рейтинг:
0.0
Просмотров: 23
Транспонировать - +
Вступление:
 F  C  Dm  Am
2)-----------------6-6-8-10-5---|
3)-2-2-3-5-5-3-2----------------|

Бас:
4)---3----5-3----|---3----5-3----|---------------|--------2-3----|
5)-5---5-------5-|-5---5-------5-|---3----5-3----|---3---------5-|
6)---------------|---------------|-5---5-------5-|-5---5---------|

Куплет:
 F       C      Am         Dm
Северная музыка, город на столе.
F          C        Am        Dm
И печать задумчивости на твоем челе.
 A#            Am            Dm  (Перебор)
Лето удаляется, дождь идет порой,
Am       F      A#           Dm    
И к зиме готовится мой пчелиный рой.

A# A A# A }x2 

  F          C         Dm          Am (Бой)
Скоро осень поздняя, слякоть да мороз,
 F             C         Dm          Am
Как в краю возлюбленном без тепла я рос? (Перебор)
A#             Am       Dm
Осень. Лето юное умирает. Ты
 A                 Dm       C    F  A
Собираешь поздние осенние цветы… А-а-а...

A#       C    Am
Я лежу задумчиво и не шевелюсь,
A#          C    Am
Испугать, любимая, я тебя боюсь.
A#                Am         Dm     (Перебор)
Ведь вчера скончался и лежу в гробу,
 A#  C    F   A        Dm     Am
Похороны завтра. Только не могу,
 C
Только не могу

 A#          C      Am            (Бой)
Не могу смотреть я как рыдаешь ты,               
  A#         C     Am
Плачешь и рыдаешь, и все рвешь цветы.
A#       Am          Dm
Умираешь осенью – странная игра,
 A#      C      F         Am      Dm Am C
Только все окончилось - умер я вчера…

Бас: }x4 
4)---3----5-3----|---3----5-3----|---------------|--------2-3----|
5)-5---5-------5-|-5---5-------5-|---3----5-3----|---3---------5-|
6)---------------|---------------|-5---5-------5-|-5---5---------|

 A#       C       Am          Dm (Бой)
Северная музыка, город на столе.
A#          C          Am        Dm
И печать задумчивости на твоем челе.
 A#      C       Am           Dm
Лето удаляется, дождь идет порой,
A#              F A# C   F 
А моя любимая прощается со мной.

Бас: x4 
4)---3----5-3----|---3----5-3----|---------------|--------2-3----|
5)-5---5-------5-|-5---5-------5-|---3----5-3----|---3---------5-|
6)---------------|---------------|-5---5-------5-|-5---5---------|
comments powered by Disqus
Наверх