Аккорды Коридор - Клавиши неба

Добавлено: @romashka
Дата добавления: 07 Августа 2018г.
Рейтинг:
0.0
Просмотров: 62
Транспонировать - +
Intro:
    Am              E/G#            C/G             D/F#   
e|-------0-------------0-0-------|-------0---------------0-------|
b|-----1-----1-3-0-----0-0-------|-----1-----1---------------3---|
g|---2---------------1-1-1-------|---0---------0-------2---------|
d|-------------------------------|-------------------0-----------|
a|-0-----------------------------|-------------------------------|
E|-----------------4-------------|-3---------------2-------------|

    Dm6add9/B                       F               E7
e|-----------3--1--0---------0---|-----------1-----0-------------|
b|-------3-----------3-0--^1-----|-------1---------3--3--1--0----|
g|-----2-----------------------0-|-----2---------2-1-------------|
d|---3---------------------------|---3---------------------------|
a|-2-----------------------------|-------------------------------|
E|-------------------------------|-1---------------0-------------|

    Am              E/G#            C/G             D/F#     
e|-------0-------------0-0-------|-------0---------------0-------|
b|-----1-----1-3-0-----0-0-------|-----1-----1---------------3---|
g|---2---------------1-1-1-------|---0---------0-------2---------|
d|-------------------------------|-------------------0-----------|
a|-0-----------------------------|-------------------------------|
E|-----------------4-------------|-3---------------2-------------|

    Dm6add9/B                       F             E
e|-----------3--1--0-------------|-------------------------------|
b|-------3-----------3--1--------|-------1---3-1-0---------------|
g|-----2-------------------2--0--|-----2---------1-1---1---------|
d|---3---------------------------|---3-----------2---2---2---2---|
a|-2-----------------------------|-------------------------2---2-|
E|-------------------------------|-1-------------0---------------|

  Am      C        Dm       E
Ещё один день догорает в закате,
  Am      C         Dm        E
Ещё одна ночь погружает в раздумья,
  Dm7       Dm7/F  G7         C
Ушёл на войну неизвестным солдатом
  Dm7      Dm7/F           E7
И умер полковником в полнолунье...

  Am      C        Dm       E
Нет, выжил, и маршалом кончил в изгнаньи,
  Am      C        Dm       E
Как загнанный зверь, догрызая надежду,
  Dm7       Dm7/F  G7        C
Цепями прикован к воспоминаньям
  Dm7      Dm7/F           E7
С последней улыбкой, безудержно нежной...

           Am        E7
    Для тебя, мой кумир,
         C           G6
    Эта жизнь, эта смерть,
         Dm6add9               Am
    Я дарю тебе - слышишь - дарю этот мир,
          F               E7
    Я придумал его как сумел.
           Am        E7
    Я весь рок сочинял для тебя эту небыль,
         C           G6
    В ней безумствовал, в ней и затих.
         Dm6add9               Am
    Задержи свои руки на клавишах неба -
          F               E7
    Я всего лишь одна из них...

          F                E7
    Задержи свои руки на клавишах неба...
          Dm7              E7
    Задержи свои руки на клавишах неба...

  Am      C        Dm       E
В колодце вокзала стоял, как в распятьи,
  Am      C        Dm       E
А ты не сказала, в каком будешь платье,
  Dm7       Dm7/F  G7         C
Цветы разлетелись, и, в полночь упавши,
  Dm7      Dm7/F           E7
На мятой постели рыдали, обнявшись...

  Am      C        Dm       E
Живой... И по новой в атаку бросаясь,
  Am      C        Dm       E
Бежал за тобой в страхе - вдруг обознаюсь.
  Dm7       Dm7/F  G7         C
Срывая одежды, скрипя челюстями,
  Dm7      Dm7/F           E7
В объятья надежды ложился костями.


           Am        E7
    Для тебя, мой кумир,
         C           G6
    Эта жизнь, эта смерть,
         Dm6add9               Am
    Я дарю тебе - слышишь - дарю этот мир,
          F               E7
    Я придумал его как сумел.
           Am        E7
    Я весь рок сочинял для тебя эту небыль,
         C           G6
    В ней безумствовал, в ней и затих.
         Dm6add9               Am
    Задержи свои руки на клавишах неба -
          F               E7
    Я всего лишь одна из них...

          F               E7
    Задержи свои руки на клавишах неба...
          Dm7              E7
    Задержи свои руки на клавишах неба...

     F                 C
Адмирал, не хотите ли выпить?
        G                   Am Asus4 Am
Вам покрепче, со льдом или без?
          F                  C
Здесь сойдутся пути, там порвутся все нити,
         F                 E7
Но ведь музыка льётся с небес!

     F                 C
Я речам Вашим пафосным внемлю,
        G                 Am Asus4 Am
У Вас - джокер, а я нынче пас.
     F                 C
Вы уходите в море, я - в землю,
         F             E7
Но ведь это я выдумал Вас!

     F              C
И пока моя музыка будет
        G                Am Asus4 Am
Из-под пальцев любимой звучать,
     F                 C
Обо мне здесь никто не забудет
         F                 E7
И я вправе чуть-чуть помолчать...

           Am        E7
    Для тебя, мой кумир,
         C                      G6
    Эта жизнь, эта смерть, эта небыль,
         Dm6add9               Am
    Я дарю тебе - слышишь - дарю этот мир,
          F                E7
    Задержи свои руки на клавишах неба...
          Dm7              E7
    Задержи свои руки на клавишах неба...
          F                E7
    Задержи свои руки на клавишах неба...
          Dm7              E7
    Задержи свои руки на клавишах неба...

Outro=Intro:
    Am              E/G#            C/G             D/F#   
e|-------0-------------0-0-------|-------0---------------0-------|
b|-----1-----1-3-0-----0-0-------|-----1-----1---------------3---|
g|---2---------------1-1-1-------|---0---------0-------2---------|
d|-------------------------------|-------------------0-----------|
a|-0-----------------------------|-------------------------------|
E|-----------------4-------------|-3---------------2-------------|

    Dm6add9/B                       F               E7
e|-----------3--1--0---------0---|-----------1-----0-------------|
b|-------3-----------3-0--^1-----|-------1---------3--3--1--0----|
g|-----2-----------------------0-|-----2---------2-1-------------|
d|---3---------------------------|---3---------------------------|
a|-2-----------------------------|-------------------------------|
E|-------------------------------|-1---------------0-------------|

    Am              E/G#            C/G             D/F#     
e|-------0-------------0-0-------|-------0---------------0-------|
b|-----1-----1-3-0-----0-0-------|-----1-----1---------------3---|
g|---2---------------1-1-1-------|---0---------0-------2---------|
d|-------------------------------|-------------------0-----------|
a|-0-----------------------------|-------------------------------|
E|-----------------4-------------|-3---------------2-------------|

    Dm6add9/B                       F             E
e|-----------3--1--0-------------|-------------------------------|
b|-------3-----------3--1--------|-------1---3-1-0---------------|
g|-----2-------------------2--0--|-----2---------1-1---1---------|
d|---3---------------------------|---3-----------2---2---2---2---|
a|-2-----------------------------|-------------------------2---2-|
E|-------------------------------|-1-------------0---------------|

End:
e|-------------|
b|-3---2-0-2---|
g|-2---2-2-2---|
d|-2---2-2-2---|

Аккорды:
G6      : 030020
Dm6add9 : 032320
Asus4   : 032200
comments powered by Disqus
Наверх