Аккорды Король и Шут - Медведь

Добавлено: @romashka
Дата добавления: 24 Ноября 2019г.
Рейтинг:
0.0
Просмотров: 25
Транспонировать - +
Вступление: 
   e|-0-0-0-0-0-0-0--0-0-0-0-0-0-0-| x2
   B|-0-0-0-0-0-0-0--0-0-0-0-0-0-0-|
   G|-2-2-2-2-2-2-2--4-4-4-4-4-4-4-|
   D|-3-3-3-3-3-3-3--5-5-5-5-5-5-5-|
   A|-3-3-3-3-3-3-3--6-6-6-6-6-6-6-|
   E|-1-1-1-1-1-1-1--3-3-3-3-3-3-3-|
Бой:  ↓ ↓ ↓ ↓ ↑ ↓ ↓  ↓ ↓ ↓ ↓ ↑ ↓ ↓

Em7     Bm7  Cadd9       G
Я жив, покуда я верю в чудо,
Asus2      Em  F#7    B
Но должен буду я умереть.
Em7        Bm7      Саdd9         G
Мне очень грустно, что в сердце пусто,
Asus2     Em     F#7      B
Все мои чувства забрал медведь.

Припев:
   A#         Asus2 A#       Asus2
     Моя судьба мне неподвластна,
   A#       Asus2  A#           Asus2
     Любовь моя, как смерть, опасна.
   Cadd9        G   Em        Asus2
     Погаснет день, луна проснется,
   Cadd9         G    Em        Asus2
     И снова зверь во мне очнется.
   Fmaj7      Em  Asus2      Em
     Забрали чары души покой,
    G6                G7
     Возник вопрос: "Кто я такой?"

   e|------------------------------| x2
   B|------------------------------|
   G|-2-2-2-2-2-2-2--4-4-4-4-4-4-4-|
   D|-3-3-3-3-3-3-3--5-5-5-5-5-5-5-|
   A|-3-3-3-3-3-3-3--6-6-6-6-6-6-6-|
   E|-1-1-1-1-1-1-1--3-3-3-3-3-3-3-|
Бой:  ↓ ↓ ↓ ↓ ↑ ↓ ↓  ↓ ↓ ↓ ↓ ↑ ↓ ↓

Em7       Bm7  Cadd9         G
Мой бедный разум дошел не сразу
Asus2        Em  F#7    B
До странной мысли: я - человек.
Em7       Bm7  Cadd9         G
Колдун был пьяный, весьма упрямый,
Asus2        Em  F#7    B
Его не видеть бы да ни вовек.

Припев:
   A#         Asus2 A#       Asus2
     Моя судьба мне неподвластна,
   A#         Asus2 A#       Asus2
     Любовь моя, как смерть, опасна.
   Cadd9          G   Em        Asus2
     Я был медведем, проблем не знал,
   Cadd9          G   Em        Asus2
     Зачем людских кровей я стал?
   Fmaj7      Em  Asus2      Em
     И оборвется тут, словно нить,
     G6               G7
     Мой дар на двух ногах ходить!
     
e|-0-0-0-0-0-0-0--0-0-0-0-0-0-0-------------------------------| x2
B|-0-0-0-0-0-0-0--0-0-0-0-0-0-0-------------------------------|
G|-2-2-2-2-2-2-2--4-4-4-4-4-4-4--2-2-2-2-2-2-2--4-4-4-4-4-4-4-|
D|-3-3-3-3-3-3-3--5-5-5-5-5-5-5--3-3-3-3-3-3-3--5-5-5-5-5-5-5-|
A|-3-3-3-3-3-3-3--6-6-6-6-6-6-6--3-3-3-3-3-3-3--6-6-6-6-6-6-6-|
E|-1-1-1-1-1-1-1--3-3-3-3-3-3-3--1-1-1-1-1-1-1--3-3-3-3-3-3-3-|
   ↓ ↓ ↓ ↓ ↑ ↓ ↓  ↓ ↓ ↓ ↓ ↑ ↓ ↓  ↓ ↓ ↓ ↓ ↑ ↓ ↓  ↓ ↓ ↓ ↓ ↑ ↓ ↓
comments powered by Disqus
Наверх