Аккорды Король и Шут - Лесник

Добавлено: @romashka
Дата добавления: 12 Января 2022г.
Рейтинг:
0.0
Просмотров: 6
Транспонировать - +
Вступление:
e|----------00----------00-------33-11-------33-11---
B|----11-33-------11-33-------11----------11---------
G|-22----------22----------22----------22------------
D|---------------------------------------------------
A|---------------------------------------------------
E|---------------------------------------------------

e|-33-11-00----33-11-00------------------------------
B|----------33----------33----00-11-33----00-11-33---
G|-------------------------00----------00------------
D|---------------------------------------------------
A|---------------------------------------------------
E|---------------------------------------------------

Куплет 1:
   Am        
Замученный дорогой,
   F         G
Я выбился из сил,
    Am
И в доме лесника я
    F        G
Ночлега попросил,
    Am        
С улыбкой добродушной
    F           G
Старик меня впустил
      Am
И жестом дружелюбным
    F         G
На ужин пригласил
Хэй!

D C G

[Припев]:
 Am                                  
Будь как дома, путник,
 F                 
Я ни в чем не откажу,
 Dm                 
Я ни в чем не откажу,
 G
Я ни в чем не откажу,
 Am                 
Множество историй
 F
Коль желаешь, расскажу,
 Dm                 
Коль желаешь, расскажу,
 G
Коль желаешь, расскажу

Куплет 2:
   Am        
На улице темнело,
    F           G
Сидел я за столом,
   Am        
Лесник сидел напротив,
    F           G
Болтал о том, о сем,
   Am        
Что нет среди животных
    F           G
У старика врагов,
   Am        
Что нравится ему
    F           G
Подкармливать волков
Хэй!

D C G

[Припев]:
 Am                                  
Будь как дома, путник,
 F
Я ни в чем не откажу,
 Dm
Я ни в чем не откажу,
 G
Я ни в чем не откажу,
 Am
Множество историй
 F
Коль желаешь, расскажу,
 Dm
Коль желаешь, расскажу,
 G
Коль желаешь, расскажу

Куплет 3:
   Am        
И волки среди ночи
    F           G
Завыли под окном,
   Am        
Старик заулыбался
    F           G
И вдруг покинул дом,
   Am        
Но вскоре возвратился
    F           G
С ружьем наперевес:
   Am        
"Друзья хотят покушать,
    F           G
Пойдем, приятель, в лес !"

D C G

[Припев]:
 Am
Будь как дома, путник,
 F
Я ни в чем не откажу,
 Dm
Я ни в чем не откажу,
 G
Я ни в чем не откажу,
 Am
Множество историй
 F
Коль желаешь, расскажу,
 Dm
Коль желаешь, расскажу,
 G
Коль желаешь, расскажу
Наверх