Аккорды Король и Шут - Кукла колдуна

Добавлено: @romashka
Дата добавления: 02 Февраля 2022г.
Рейтинг:
0.0
Просмотров: 61
Транспонировать - +
[Куплет 1]:
Dm         F     Gm      A
Тёмный мрачный коридор, я на цыпочках как вор
Dm         F     Gm      A
Пробираюсь чуть дыша, чтобы не вспугнуть
Dm         F     Gm      A
Тех, кто спит уже давно, тех, кому не всё равно
Dm         F     Gm      A
В чью я комнату тайком желаю заглянуть,
Gm       A
Что бы увидеть

[Припев]:
  Dm
  Как бессонница в час ночной
       Gm       A
  Меняет, нелюдимая, облик твой,
  Dm
  Чьих невольница ты идей,
       Gm       A
  Зачем тебе охотиться на людей?

Dm         F     Gm      A
Крестик на моей груди, на него ты погляди,
Dm         F     Gm      A
Что в тебе способен он резко изменить,
Dm         F     Gm      A
Много книжек я читал, много фокусов видал,
Dm         F     Gm      A
Свою тайну от меня не пытайся скрыть, 
Gm       A
я это видел


Припев х1

[Куплет 2]:
Dm         F     Gm      A
Очень жаль, что ты тогда мне поверить не смогла
Dm         F     Gm      A
В то, что новый твой приятель не такой как все.
Dm         F     Gm      A
Ты осталась с ним вдвоём, не зная ничего о нём,
Dm         F     Gm      A
Что для всех опасен он, наплевать тебе, 
Gm       A
и ты попала


Припев х1

Куплет 3 
  Dm
К настоящему колдуну, 
       Gm       A
Он загубил таких как ты, не одну! 
  Dm
Словно куклой, в час ночной 
       Gm       A
Теперь он может управлять тобой!


Bb     C          F
Всё происходит, как в страшном сне,
Bb   Gm        A7      Dm Gm A Dm
И находиться здесь опасно мне.


Вокальная партия:

   Dm         F     Gm      A                       Dm         F     Gm      A
   Тёмный мрачный коридор, я на цыпочках как вор.   Пробираюсь чуть дыша, чтобы не вспугнуть
d|--------------------------------------------------------------------------------------------
A|--------------------------------------------------------------------------------------------
F|--------------------------------------------------------------------------------------------
C|--------------------------------------------------------------------------------------------
G|--5--5--5--5---5--3--3-----------5--4-------------5--5--5--5---5--3--3------------5---------
D|-------------------------3-5--6---------6--5-----------------------------3-5--6------5------

   Dm         F     Gm      A                        Dm         F     Gm      A
   Тех, кто спит уже давно, тех, кому не всё равно   В чью я комнату тайком желаю заглянуть,
d|--------------------------------------------------------------------------------------------
A|--------------------------------------------------------------------------------------------
F|--------------------------------------------------------------------------------------------
C|--------------------------------------------------------------------------------------------
G|--5--5--5--5--5---3--3-------------5--4------------5--5--5--5---5--3--3-------------5--7----
D|--------------------------3--5--6---------6--5----------------------------3-3-5--6----------

    Gm       A
    Что бы увидеть
d|-----------------
A|-----------------
F|-----------------
C|-----------------
G|----------4------
D|--3-5-6------6---

   Dm                            Gm                 A
   Как бессонница в час ночной   Меняет, нелюдимая, облик твой,
   Чьих невольница ты идей,      Зачем тебе охотиться на людей?
d|-------------------------------------------------------------
A|-------------------------------------------------------------
F|-------------------------------------------------------------
C|----------------------------------------8-7-7------8--7------
G|-8--7--7--5--5---8--7--5-------5--7--8--------8-8--------7---
D|-------------------------------------------------------------

    Bb     C           F                 Bb   Gm        A7      Dm Gm A Dm
   Всё происходит, как в страшном сне,  И находиться здесь опасно мне.
d|--------------------------------------------------------------------
A|--------------------------------------------------------------------
F|--------------------------------------------------------------------
C|----------------------7---------------------------------------------
G|--5--7--8--7-5------------8-----------5--7--8---7--5---------4--7---
D|------------------8------------8----------------------8---5--------- 

Гитара в D (под свой вокал перестройте).
Наверх