Аккорды Король и Шут - Исповедь вампира

Добавлено: @romashka
Дата добавления: 05 Мая 2022г.
Рейтинг:
0.0
Просмотров: 21
Транспонировать - +
Интро : четыре раза (последний с приглушением)
D)0-----0-----0---------------
A)--0-----3--0--6-0---5--3--5
D)----0----0---------0--0--0

D)0-----------0
A)--0---3---0--6-0---5--3--0
D)----0---0---------0--0--0


На первых двух строках бас гитара :
G)7-7-7--5-5-5-5--8-7-5
D)0-0-0--0-0-0-0--0-0-0

G)7-7-7--5-5-5-5--8
D)0-0-0--0-0-0-0--0

Ноги тащат по земле
Тыщу лет во мгле!


D C        D# D C
Глазами зверя вижу мир!
D C        D# D C
B)10-8--11-10-8
Путь мой вечен…
D C        D# D C
Я классный парень, я вампир!
D C        D# D C
B)10-8--11-10-8
Бесконечен…
F        G
Есть у меня интерес большой,
D C        D# D C
Любопытно мне!
F        G
Что называете вы душой?!
D)0-0-0
A)0-0-0
D)0-0-0
Слабость, лелея тайком свою в уме!!!
D)4-2-1--4-4-2-1--4-2-1--4-4-2-1
A)4-2-1--4-4-2-1--4-2-1--4-4-2-1
D)4-2-1--4-4-2-1--4-2-1--4-4-2-1


D C        D# D C
Я убеждаюсь вновь и вновь!
D C        D# D C
B)10-8--11-10-8
Убеждаюсь…
D C        D# D C
У негодяев слаще кровь!
D C        D# D C
B)10-8--11-10-8
Наслаждаюсь…
F        G
Я не кусаю всех подряд,
D C        D# D C
Жертву выбираю,
F        G
Обычно это сладкий гад!
D)0-0-0-0-0-0
A)0-0-0-0-0-0
D)0-0-0-0-0-0


G        A#
Но я живу, не видя дня
F        D
Во мраке бесконечной ночи
G)----7--------------10--------
D)--------7--5-----------10--8
A)--5---5--5--5----8---8---8--8
D)5---------------8-------------
И нет надежды у меня
G)-----5-------------
D)----------5---3-----0
A)--3-----3---3---3---0
D)3-------------------0
В гробу смыкаю свои очи.


D C        D# D C
Вся жизнь вампира сущий ад!
D C        D# D C
B)10-8--11-10-8
Мое время…
D C        D# D C
Вы рады жизни – я смерти рад!
D C        D# D C
B)10-8--11-10-8
Мое бремя…
D C        D# D C
Я к людям добрый, злобы нет,
F        G
Откуда злобе взяться?
D C        D# D C
Ведь для меня они обед,
D)0-0-0
A)0-0-0
D)0-0-0
А ну, стоять, дрожать, бояться!!!
D)4-2-1--4-4-2-1--4-2-1--4-4-2-1
A)4-2-1--4-4-2-1--4-2-1--4-4-2-1
D)4-2-1--4-4-2-1--4-2-1--4-4-2-1


G        A#
Но я живу, не видя дня,
F        D
Во мраке бесконечной ночи,
G)----7--------------10--------
D)--------7--5-----------10--8
A)--5---5--5--5----8---8---8--8
D)5---------------8-------------
И нет надежды у меня,
G)-----5-------------
D)----------5---3-----0
A)--3-----3---3---3---0
D)3-------------------0
В гробу смыкаю свои очи. 

Гитара и бас гитара в drop D.
Наверх