Аккорды Король и Шут - Дурак и молния

Добавлено: @romashka
Дата добавления: 26 Августа 2022г.
Рейтинг:
0.0
Просмотров: 30
Транспонировать - +
[Вступление]:
 
(3) ----------------------------4-------------------- 
(4) ------------6-4-----4-6---6---6-------------6-4-- 
(5) --4-6-7---3-----4-7-----4---------4-6-7---3-----4 
(6) 5-------4-----------------------5-------4-------- 
 
(1) -x--x--x--x--4--4--4--4--4--4--4--4-------------------------------- 
(2) -x--x--x--x--4--4--4--4--4--4--4--4-------------------------------- 
(3) -x--x--x--x--5--5--5--5--5--5--5--5-------------------------------- 
(4) -x--x--x--x--6--6--6--6--6--6--6--6-------------------------------- 
(5) -x--x--x--x--6--6--6--6--6--6--6--6-------------------------------- 
(6) -x--x--x--x--4--4--4--4--4--4--4--4-------------------------------- 
 
 
[Куплет 1]: 
 
(6) -4-7-4-   A  G#           C#m 
   Грохочет гром,   сверкает молния в ночи 
         A  G#         C#m 
А на холме    стоит безумец и кричит: 
            A          G#          C#m 
"Сейчас поймаю тебя в сумку и сверкать ты будешь в ней 
         A              G#       C#5 
Мне так хочется, чтоб стала ты моей!" 
 
[Припев]: 
    A        G#    C#m           A     G#      C#m 
То парень к лесу мчится,   то к полю, то к ручью 
  A     G#       C#m     F#m      G#m    С#5 
Всё поймать стремится   мо-о-о-олни-и-и-ию! 
 
[Куплет 2]: 
               A  G#            C#m 
Весь сельский люд   смотреть на это выходил 
           A     G#         C#m 
Как на холме-е-е-е безумец бегал и чудил 
               A        G#            C#m 
Он, видно, в ссоре с головою, видно, сам себе он враг 
        A          G#         C#5 
Надо-ж выдумать такое - во дурак! 
 
[Припев]: 
    A        G#    C#m           A     G#      C#m 
То парень к лесу мчится,   то к полю, то к ручью 
  A     G#       C#m     F#m      G#m    С#5 
Всё поймать стремится   мо-о-о-олни-и-и-ию! 
 
 
[Куплет 3]: 
B                    G#m           A            B 
Утром по сельской дороге медленно шёл ночной герой 
         G#m       C#m      F#m        G#m   
Весь лохматый и седой и улыба-а-а-ался 
 
[Соло] 
A  G#  C#m  C#m х3 
F#m   G#m  
 
[Модуляция] 
    B       A#     D#m           B     A#      D#m 
То парень к лесу мчится,   то к полю, то к ручью 
  B     A#       D#m      G#m      A#m    D#5 
Всё поймать стремится    мо-о-о-олни-и-и-ию! 
Наверх