Аккорды Король и Шут - Гимн шута

Добавлено: @romashka
Дата добавления: 16 Марта 2013г.
Рейтинг:
0.0
Просмотров: 610
Транспонировать - +
Соло на басу вначале:

  D-|----2---2-----2-2-2-0-2-2-0-------2-----
  A-|--------------------------------2-------
  E-|0-0---0---0-0---------------0-4---------


Вступление:

  H-|-------------------------------0--------
  G-|2---------------------------2----1------
  D-|--4-2---2--4-2------------2--------4-2--
  A-|------4--------4-0-4--0-4---------------

  H-|-------------------------------0-----0--
  G-|2---------------------------2----1------
  D-|--4-2---2--4-2------------2--------4----
  A-|------4--------4-0-4--0-4---------------

  E-|----------------------0-----------------
  H-|2-2-2-0-2--2-2-2-0-2----3-2-3--2-0------
  G-|-----------------------------------2-1--

  E-|----------------------0-----------------
  H-|2-2-2-0-2--2-2-2-0-2----3-2-3--2-0-----2
  G-|-----------------------------------2-1--


 A
Терпеньем я не наделен,
 E                             D
И мне все лучше, да мне все лучше,
 A     D
Я удивлен!
 A     D
Я удивлен!

 A
Судьба, в которую влюблен,
 E                         D
Дает мне право, смеяться даже
 A       D
Над королем!
 A       E
Над королем!

 D         A
Стать дураком
 D              A
Мне здесь пришлось,
 D          A          E
Хотя я вижу всех насквозь.


Припев:
          A                            F#m
         Искренне прошу, смейтесь надо мной,
          D                E
         Если это вам поможет.
          A                           F#m
         Да я с виду шут, но в душе король,
          D                  E
         И никто как я не может.


Эй, вы, придворная толпа
Я вас не вижу, я вас не слышу,
Я отрешен!
Я отрешен!

Меня готовы, как клопа,
Топтать ногами, и это значит
Мой час пришел!
Мой час пришел!

Открою вам
Один секрет
Вельмож к несчастью честных нет.

Припев

Я всех высмеивать вокруг
Имею право, и моя слава
Всегда со мной!
Всегда со мной!

Пускай все чаще угрожают
Мне расправой, но я в драках
Хорош собой!
Хорош собой!

Как голова
Ты горяча,
Не стань трофеем палача.

Припев - 2 раза


Концовка:

  E-|--0----------0----------------------------
  H-|----3-232------3-232----3-2-020----3-2-020  - 6 раз
  G-|2----------2------------------------------
  D-|----------------------2----------2--------
comments powered by Disqus
Наверх