Аккорды Король и Шут - Два вора и монета

Добавлено: @romashka
Дата добавления: 16 Марта 2013г.
Рейтинг:
0.0
Просмотров: 680
Транспонировать - +
Два вора, лихо скрывшись от погони,
Делить украденное золото решили.
На старом кладбище, вечернею порою,
Уселись рядом на заброшенной могиле.
И, вроде, поровну досталось им богатства,
Но вот беда - последняя монета,
Один кричит: "Она - моя, я лучше дрался".
"Да что б ты делал, друг, без моего совета?"

 Hm      F#m      G      Em     F#m
- Отдай монету, а не то я рассержусь.
 Hm       F#m       G       A       F#m
- Мне наплевать, я твоей злости не боюсь.
 Hm       G        A        Hm       G       A
- Но ведь я похитил деньги и все дело провернул.
 F#m             G            F#m           G
- Без моих идей, невежа, ты б и шагу не шагнул.


 A       Hm       G       A
"Что же делать нам с монетой,
 Hm       G       A
Как же нам ее делить?"
 F#m             G
- Отдадим покойнику.
 F#m     G      A     Hm
- Отлично, так тому и быть.


- Я был проворней, значит денежка моя.
- Не допущу, чтоб ты богаче был, чем я.
- Сейчас вцеплюсь тебе я в горло и на части разорву.
- Я прибью тебя дубиной и все деньги заберу.


  "Что же делать нам с монетой,
  Как же нам ее делить?"
  - Отдадим покойнику.
  - Отлично, так тому и быть.


   Hm      F#m     G      Em     F#m
E|-----------------------------------|
B|-3--5--2---------------------------|
G|---------2-------------------------|
D|------------4--4--2----------4-----|
A|---------------------5--2--5---2---|
E|-----------------------------------|

   Hm     F#m      G      A      F#m
E|-----------------------------------|
B|-3--5--2---------------------------|
G|---------2---------------------2---|
D|------------4--4--2----------4-----|
A|---------------------5--2--5-------|
E|-----------------------------------|


 Hm        G        A        Hm       G        A
И мертвец, гремя костями, вдруг поднялся из земли:
 F#m          G           F#m         G
"Довели меня, проклятые, ей богу, довели".
 A     Hm      G      A     Hm     G     A
Воры вмиг переглянулись, и помчались наутек,
 F#m      G      F#m      G       A      Hm
А мертвец все золото с собой в могилу уволок.
comments powered by Disqus
Наверх