Аккорды Король и Шут - Зловещий кузен

Добавлено: @romashka
Дата добавления: 16 Марта 2013г.
Рейтинг:
0.0
Просмотров: 550
Транспонировать - +
Сокращения и обозначения, использовавшиеся при подборе песни:
> - глиссандо ("подъезд")
f - форшлаг


Проигрыш:
   Hm            Hm            F#m            Em            F#
E|-----------------------------------------------------2-------|
B|---3-2------3-2---3-2------2----------------------2----2---2-|
G|-4-----2-4--4-2-4-----4-2--------0--------0-----3---3----3---|
D|-4---------4----4--------4---4-2---4-0-2-4--2-4--------------|
A|-2-------2------2--------4---4-------------------------------|
E|------------------------2------0--------------2--------------|

Затем вступает вторая гитара; играет параллельно с первым соло:

E|-----2-0f20-----------2-0-----------------------------------|
B|-2>3--------2-3---2>3-----2---------------------------------|
G|----------------------------2-------0---------0-----3---3---|
D|--------------------------------0>2---4-0-2-4-----4---4---4-|
A|------------------------------------------------------------|
E|------------------------------------------------------------|


 Hm                Em                Hm
Вокруг догорающей свечки кружат мотыльки...
 Hm                  Em                   Hm
В ту брачную ночь у невесты прорезались клыки!
 D                     A                       D
Отец был просто в шоке, жених был вусмерть пьяный
 Hm                          E
И лишь кузен её, погрязший, гад,
 F#
В пороке... всё улыбался, окаянный!


Припев:
 Hm    Em     F#     Hm     Em     F#     Em     F#
Обожаю я гулять, обожаю я гулять и шею нежную кусать
 Hm        Em       F#
Небо румяней - там игра,
 Hm          Em          F#         Em         F#
небо румяней - там игра, и каждой жертве очень рад!
 Hm         A           Em          F#
Хочу туда! Хочу сюда! И кровь - моя еда!


Невеста стонала от муки, отец рассвирепел,
Сломал он племяннику руки, а ноги не сумел.
Затем велел остаться с невестой мать и тёщу,
Схватил за шиворот зловещего мерзавца...

Припев

 Hm                                         A
Не знал мужик, каким путём от гада избавляться.
 Em                                        F#
Ударил по носу локтём - мерзавец стал смеяться.
 Hm                                         A
Его к осине привязал, но тот был слишком ловок,
 Em                                         F#
"...лан", - папаше он сказал и вылез из верёвок.
 Em                                         A
К утру мужик пришёл домой, принёс клыки злодея,
 Em                                                   F#
Бить в зубы было не в первой... Ха-ха-ха-ха! Хорошая идея!
comments powered by Disqus
Наверх