Аккорды Король и Шут - Леший обиделся

Добавлено: @romashka
Дата добавления: 16 Марта 2013г.
Рейтинг:
0.0
Просмотров: 534
Транспонировать - +
 A       D      Hm      E
В ночном лесу костер горел,
 C#m      F#m        D        E
А у костра усталый дедушка сидел,
 A      D      Hm     A
Трогал усы, трубку курил,
 Hm      E      A       D      E
О чем-то тихо сам с собою говорил.

 A        D       Hm      E
И в тот же миг раздался крик,
 C#m         F#m         D          E
Схватив дубину, поспешил на зов старик.
От боли корчась, парень в кустах лежал,
И озирался, и от страха весь дрожал.


     A                      D
   "Дедушка, милый, спаси меня,
     Hm                    E
    В капкан угодила нога моя".
     F#m                              D
    Но почему в ответ брови нахмурил дед,
     E
    Брови сурово нахмурил дед?


Старик курил и говорил:
"Ты мне серьезную обиду причинил.
Как смел ты этой ночью в мой лес ходить,
О страшном лешем так бесстыдно позабыть?"


   "Дедушка, милый, спаси меня,
    В капкан угодила нога моя".
    Но почему в ответ брови нахмурил дед,
    Брови сурово нахмурил дед?


   A         D        A        Hm        E          A
E|-----------------------------2-----------------------|
B|-2--0--------2--0----5-----2---3-3-2-0-----0-2-0-----|
G|-------2-----------2-----2-----------------------2---|
D|---------4-------------------------------------------|
A|-----------------------------------------------------|
E|-----------------------------------------------------|

  A              C
"Погибель тебя ждет,
 F                        G
Коль ты со мною повстречался,
Ведь больше не живет тот зверь,
Что в мой капкан попался".

Парень вскочил и помчался прочь,
Дико кричал, проклиная ночь,
Падал, одежду рвал, снова вставал, бежал
Вместе с капканом до самого дома.


   A   D   Hm   E   C#m   F#m    D    E   A   G#   G   F#m   A
E|-------------------------------------------------------------|
B|-2-2-------2-3---5-5-------7--10--9--7-9--10--9--10--15--14--|
G|---------4-----1-----1-2-------------------------------------|
D|-----2-4-----------------------------------------------------|
A|-------------------------------------------------------------|
E|-------------------------------------------------------------|
comments powered by Disqus
Наверх