Аккорды Король и Шут - Проказник скоморох

Добавлено: @romashka
Дата добавления: 16 Марта 2013г.
Рейтинг:
0.0
Просмотров: 428
Транспонировать - +
 A D E A
Хэй-хэй-хэй..


    A   E   D
e|-------------|
B|-------------|
G|-6---4---2---|
D|-------------|
A|-------------|
E|-------------|

   A           D         E           A
e|--------------------------------------|
B|-------------------------------2------|
G|------------------2---1---2-4-----2---|
D|------0--2--0--4----------------------|
A|-0--4---------------------------------|
E|--------------------------------------|


 A
На свадьбе скоморох
 D
Был прытким, как горох,
 E
Он бегал по столам,
 A
Кидался пудингом в гостей,
Такую чушь он нес,
Что ржали все до слез,
Смеялся даже старый пес.


   A                    D
  Праздник веселый на селе,
   E                 A
  Пляшет хмельной народ,
  И угощенья на столе -
  Свадьба вовсю идет.


Воскликнул скоморох,
Лишь только смех заглох:
"Хотите я вам фокус покажу?"
Невесту он схватил
И в бочку посадил,
Всех отвернуться попросил.


  Праздник веселый на селе,
  Пляшет хмельной народ,
  И угощенья на столе -
  Свадьба вовсю идет.


Раздался женский крик,
И в тот же самый миг,
Над длинной сельской улицей
Погасли фонари.
Включили люди свет,
Глядят - невесты нет,
И скомороха не нашли они.


  Праздник веселый на селе,
  Пляшет хмельной народ,
  И угощенья на столе -
  Свадьба вовсю идет.
comments powered by Disqus
Наверх