Аккорды Крематорий - Мусорный ветер

Добавлено: @romashka
Дата добавления: 16 Марта 2013г.
Рейтинг:
0.0
Просмотров: 333
Транспонировать - +
Вступление:
e|-7----------7--5---------5-----------------------------------|
b|---5--5-7-8--------7--7-----8--5------5-8--7-4-0-4--7--7-8-7-|
g|--------------------7-------------5-7------------------------|

e|-7----------7--5---------5-----------------------------------|
b|---5--5-7-8--------7--7-----8--5------5-8--7--4-0-4-7--7-8-5-|
g|--------------------7-------------5-7------------------------|


Em                  Em+F# Em+G H7
Мусорный ветер, дым   из   тру-бы
Em                  Em+F# Em+G H7
Плач природы, смех   са - та - ны,
   C     C+H  Am  Am+G F#
А все от то - го, что  мы
  C   C+H Am   Am+G  F#       H        Em
Любили ло-вить вет - ра и разбрасывать камни.

Песочный город построенный мной
Давным-давно смыт волной,
Мой взгляд похож на твой
В нем нет ничего от любви и забытого счастья.

A|-----------0-|
E|--0--2--4----|


Припев:
Am           D
Дым на небе, дым на земле
G              Em
Вместо людей машины
Am               D
Мертвые рыбы в иссохшей реке,
   G              Em
Зловонный зной пустыни
C          C+H Am         F#
Моя смерть раз-рубит цепи сна,
H              Em
Когда мы будем вместе.

A|---------------0--2|
E|-0--2--3--0--2-----|


Ты умна, а я идиот
И неважно, кто из нас раздает
Даже если мне повезет
И в моей руке будет туз в твоей будет joker

Так не бойся милая, ляг на снег
Слепой художник напишет портрет
Воспоет твои формы поэт
И станет звездой актер бродячего цирка


Припев:
Дым на небе, дым на земле
Вместо людей машины
Мертвые рыбы в иссохшей реке
Зловонный зной пустыни
Моя смерть разрубит цепи сна
Когда мы будем вместе


Em+F#   Em+G    C+H    Am+G
000202  000203  010020 012023
Наверх