Аккорды «Курган & Agregat»

Популярные аккорды Курган & Agregat:
алфавиту | просмотрам | случайно
  • Riff:
    E-13-------13-------13-------13-------15------15------15------15------13------13------13------13-------
    B---12-------12-------12-------12-------12------12------12------12------12------12------12------12-----
    G-----13-------13-------13-------13-------13------13------13------13------13------13------13------13---
    D-------14-------14-------14-------14-------14------14------14------14------14------14------14------14-
    A------------------------------------------------------------------------------------------------------
    E------------------------------------------------------------------------------------------------------
    
    E--------13------13------13------13-
    B------12------12------12------12---
    G----13------13------13------13-----
    D-14-------14------14------14-------
    A-----------------------------------
    E-----------------------------------
    
    Dm
    Знову…
  • Riff:
    E------------------------------------------
    B--------8--------------8------------8-----
    G----7-8-----8-7----7-8---8-7----7-8---8-7-
    D-10-------------10-----------10-----------
    A------------------------------------------
    E------------------------------------------
    
    Припев:
    C5
    Дєд…
Наверх