Аккорды Курган & Agregat - Мужичок 4.0

Добавлено: @romashka
Дата добавления: 05 Января 2020г.
Рейтинг:
0.0
Просмотров: 79
Транспонировать - +
"Америка и сейчас и всегда будет остоваться 
величайшей страной на планете Земая"
"Терпение Льюис, мы всего лишь люди"

Riff 1:
E-14-14-13-13-------14-14-13-13--------14-14-13-13-------13-13-14-14-16-16------
B-------------14-14-------------14-14--------------14-14------------------14-14-
G-------------------------------------------------------------------------------
D-------------------------------------------------------------------------------
A-------------------------------------------------------------------------------
E-------------------------------------------------------------------------------

Riff 2:
E------------------------------------------14-13-----
B---------14------16--14--------------14---------14--
G-10-11-------------------10----10-11----16----------
D----------------------------------------------------
A----------------------------------------------------
E----------------------------------------------------

Припев:
D#5                          F#5
Ти управляв моїм звукорядом, цей послєдній долг буде адом
B5                      C#5
Кіслород уже на ісходє, це протест моєй несвободє 
D#5                      F#5                    B5
Я уже почти розрядився, утром ми с тобой снова встрітимс-я-я-я
C#5
Утром ми с тобой снова встрітимся-я-я

D#5
Тук-тук, так-так, качає кров сєрдєчко
F#5 
Не випью кофє по утру не стану человєчком
B5 
Тутуту-тук, татата-так, распорядок я молюсь на тебе
C#5 
Не дай хаосу ізмінить настройки сістєми
D#5 
Запраграмірован на виполнєніє монотонних работ 
F#5
Отключить ручноє управлєніє, автопілот
B5 
Считать емоциї сина - виполніть невозможно
C#5 
Включить функцию: "Обозвать дитину нічтожеством"
D#5
"Заткнись я знаю лучшє!" - Рєжим актівірован
F#5
Сравнєніє со свєрсніками, рєбьонка замутіровать
B5
Отключить автопілот, сказать "Спасибо!" богу
C#5
Я бізнес десяток подняв благодоря асьміногу
D#5
Суєвєріє - мої стрєлки по жизні
F#5 
Надєюсь шо лєтом хотя би море в їбало бризне
B5                               C#5
А дальше похуй, рапорядок должен нарушать 
C#5
Только запланірованний отдих

Припев:
D#5                          F#5
Ти управляв моїм звукорядом, цей послєдній долг буде адом
B5                      C#5
Кіслород уже на ісходє, це протест моєй несвободє 
D#5                      F#5                    B5
Я уже почти розрядився, утром ми с тобой снова встрітимс-я-я-я
C#5
Утром ми с тобой снова встрітимся-я-я

D#5 
Послєдній в свойом роді Мужичок вєрсія 4.0
F#5 
Ряд емоцій отказав в работі не чувствую боль
B5                                                 C#5
Не шарю в іронії, чіп юмора, установлєн ще в СССР, вродіби
                                 D#5
Двігатєль работає на алкалоїдной основє
                             F#5                                   
Держу на мір злобу скоро отпусте, єслі поєду 
F#5                                   
В Європу і зароблю капусту
B5                                                           
Послє провєдьонних маніпуляций, осознаю себе і вєрнусь додому
          C#5
Кіборгом, роботом на чєловєческой основє

D#5                                      F#5
Обніму родних, і заплачу щастя слєзами, і скажу: 
F#5                                   
"Гей сімья! Я знова з вами!"
B5                                     C#5
Раньше був только тєлом тут, а тепер і душою наконєц-то
                D#5 
От настоящий я. мужичок 5.0
                 F#5   B5 C#5  
В пєрвую очередь отєц 

Припев:
D#5                          F#5
Ти управляв моїм звукорядом, цей послєдній долг буде адом
B5                      C#5
Кіслород уже на ісходє, це протест моєй несвободє 
D#5                      F#5                    B5
Я уже почти розрядився, утром ми с тобой снова встрітимс-я-я-я
C#5
Утром ми с тобой снова встрітимся-я-я
Наверх