Аккорды Ленинград - Свобода

Добавлено: @romashka
Дата добавления: 22 Августа 2020г.
Рейтинг:
0.0
Просмотров: 44
Транспонировать - +
     E   E  E  E  E  E  E  E     E  E  Q    E  E  E  E   
E||---------2-----3--2--------|-------------------------|
B||-----/3-----3--------3-----|--------2----3--2--0-----|
G||------------------------2--|-----2----------------2--|
D||---------------------------|--2----------------------|
A||---------------------------|-------------------------|
E||---------------------------|-------------------------|


    E  E  E  E  E  E  E  E     E  E  E  E  E  E  E  E   
|---------2-----3--2--------|--------2-----3--2--------|
|------3-----3--------3--0--|-----3-----3--------3-----|
|*--4-----------------------|--4--------------------2--|
|*--------------------------|--------------------------|
|---------------------------|--------------------------|
|---------------------------|--------------------------|


  E  E  E  E  E  E  E  E     E  E  Q    E  E  E  E   4x  W                 
--------2-----3--2--------|--------------------------||-------------------|
-----3-----3--------3-----|--------2----3--2--0------||-------------------|
--2--------------------2--|-----2----------------2--*||--4----------------|
--------------------------|--2----------------------*||-------------------|
--------------------------|--------------------------||-------------------|
--------------------------|--------------------------||-------------------|


  W                   W                  
-------------------|-------------------||
-------------------|-------------------||
--L----------------|-------------------||
-------------------|-------------------||
-------------------|-------------------||
-------------------|-------------------||

Bm Bm D A

Только когда плывёшь против течения
Понимаешь, чего стоит свободное мнение.
Звенья собираются в длинные цепочки,
Линия жизни становится точкой.
Строчки и дни, стежок за стежком
Шьют твоё дело с душой и огоньком.
Здесь, за решёткой, начальник — полковник!
Моя свобода — это радиоприёмник!

   Я свободен, словно птица в небесах!
   Я свободен, я забыл, что значит страх!

Быть другим — это значит быть всегда одному...
Выбирай, что тебе — суму или тюрьму!
Никому просто так не даётся свобода,
Из неё нет выхода, и в неё нет входа.
Сода для того, чтобы чай был черней.
Понятно? Тогда и себе налей!
Я участвую в каком-то сидячем марафоне.
Хорошо, есть приёмник в магнитофоне.

   Я свободен, словно птица в небесах!
   Я свободен, я забыл, что значит страх!

Чай, папиросы, ответы на вопросы,
Допросы, опять допросы...
Мой приёмник — односторонняя связь,
Тире и точки, арабская вязь...
Я не могу сказать, но зато я слышу,
Я видел, как крыса становится мышью.
То, что не стереть, как сильно ни три,
Свобода — это то, что у меня внутри!

   Я свободен, словно птица в небесах!
   Я свободен, я забыл, что значит страх!
Наверх